Recherche tablature WTMI Mookin Island

close
FILTRES DE LA RECHERCHE


Petit causeur
86 messages
https://youtu.be/4On4UCcsWm0 Salut à tous je cherche une tablature de la musique à 7min59. Je suis vraiment mauvais à l’oreille je reconnais juste —3–2–3 au début et un mi ? En premier accord Merci d’avance :)

Lucien

1 message
Bonjour,
je suis novice (j'ai douze ans et seulement 8 mois de pratique de guitare électrique) mais je pense tout de même que c'est un truc dans le genre :
--------3-2-3r-----------------------
------------------------------------
------------------------------------ (bis)
-2-2--------------------------------
-2-2--------------------------------
-1-1--------------------------------



-------3-2-3-5-3-2r------------------
------------------------------------
------------------------------------
-2-2--------------------------------
-2-2--------------------------------
-1-2--------------------------------

Amicalement,
Un jeune padawan






>> Plan du Forum Tablatures | suivi de la discussion | Tags : tablature, wtmi, musique, recherche, cherche, youtu, mookin, island, vraiment

+