Deep purple


nouveau message Répondre
Recherche

#
Coucou !
J'aimerais avoir la partition de "smoke the water" mais celle avec les accords !
Voilà car je ne vois que celle qui se joue sur une corde seulement.
Bisous maitre

#
en voila une qui a l'air correct
http://www.partoch.com/tablature/?numero=3029863

en recherchant a l'aide a l'aide de la barre a coté de "Tablatures" dans les menu du haut tu peut en trouver plein d'autre mais il faut chercher wink

#
Et tu vas me dire que là dedans y en a pas une seule avec les accords ? icon_cheesygrin
http://www.partoch.com/search/SMOKE_ON_THE_WATER.html

#
l'elfe a écrit :
Et tu vas me dire que là dedans y en a pas une seule avec les accords ? icon_cheesygrin
http://www.partoch.com/search/SMOKE_ON_THE_WATER.html

mdr icon_cheesygrin
il faut aussi savori que l'intro de somke on the water, ne se fait pas en accord!!

#
en accord ca rend beaucoup moins bien hum wink
la vraie version, de mon prof de gratte, donc il enseigne pas des conneries non plus et selon moi celle qui va le mieux, pour l'intro ca donne ca :


e|---------------------------------------------|
B|---------------------------------------------|
G|-*--0--3--5---0--3--6--5---0--3--5--3--0---*-|
D|-*--0--3--5---0--3--6--5---0--3--5--3--0---*-|
A|---------------------------------------------|
E|---------------------------------------------|


icon_cheesygrin wink

#
Pour les couplets


E||------------------------|------------------------|
B||------------------------|------------------------|
G||------------------------|------------------------|
D||--------5----------5----|--------5----------5----|
A||-----5----------5-------|-----5----------5-------|
E||--3----------3----------|--3----------3----------|



------------------------|------------------------|
------------------------|------------------------|
------------------------|------------------------|
--------5----------3----|--------5----------5----|
-----5----------3-------|-----5----------5-------|
--3----------1----------|--3----------3----------|


Pour les refrains


E||---------------------|---------------------|-------------------||
B||---------------------|---------------------|-------------------||
G||------------5--------|---------------------|-------------------||
D||-------5-------------|------------6--------|--5----------------||
A||--3------------------|-------6-------------|--5----------------||
E||---------------------|--4------------------|--3----------------||


#
Hum pas mal du tout ca, ca sonne vraiment bien. chrys, merci chrys =)smiley-guitar

#
t'as vus si y sont gentils les gens !! love

#
evidemment que ca sonne bien, de rien wink icon_cheesygrin

#
et aussi...fais la partie donnée par chrys en barré wink
c'est tellement plus simple icon_cheesygrin

#
Je te conseillerai plutôt de fretter les cordes de Ré et Sol avec l'index et le majeur. C'est un peu plus dur au début car ça demande vitesse et précision de la main gauche, mais ça permet de rajouter un petit vibrato main gauche assez agréable.
Pour faire vraiment sonner le plan, il ne faut surtout pas oublier le demi-soupir (un demi temps de silence) avant de reboucler le plan sinon ça perd tout son effet.

#
je voudrai la tablature de "lucille"svp smiley-guitar maitre

#
Je te transmet ces tab que j'ai déniché sur une methode de guitare :

000000000003
580580058085
585586558585
005006500500
000000000000
000000000000

Voila, c'est tout ce que j'ai, en espèrant que ça suffira. Si il y a un problème fait moi signe.

Skwal38 bump


nouveau message Répondre Recherche


Répondre à cette discussion >>

plan Plan du Forum Tablatures||Tags : celle, bisous, smoke, water, partition, avoir, purple, aimerais, deep