Lecture de tablature

close
FILTRES DE LA RECHERCHE


4 messages
Bonjour,

Je viens de voir un truc qui m'interroge ! Sur les tablature du site j'ai vu ca :

Outro: C Cm G5 x3
E|----------------------------------------------------------|
B|--5-5-5-5-5-5-5-4-4-4-4-4-4-4-----------------------------|
G|--5-5-5-5-5-5-5-5-5-5-5-5-5-5-----------------------------|
D|--5-5-5-5-5-5-5-5-5-5-5-5-5-5-5-5-5-5-5-5-5-5-5-5-5-5-5-5-|
A|--3-3-3-3-3-3-3-3-3-3-3-3-3-3-5-5-5-5-5-5-5-5-5-5-5-5-5-5-|
E|------------------------------3-3-3-3-3-3-3-3-3-3-3-3-3-3-|


et ce qui m'intrigue c'est ca :


 Citation :
C Cm G5 x3


J'ai bien vu qu'il y avait des image correspondante en bas de la tablature, mais qu'est ce que ca signifie ?


God of Partoch
Petit tabber
1 photo
15190 messages
Modérateur
en fait c'est plus rapide de lire les noms des accords qui sont dans la tab que des lignes de chiffres
donc c'est en rapide la même chose que la tab : do domineur sol5 (c a d sol en powerchord) et repeter trois fois la boucle.

proverbe shaddock : s'il n'y a pas de solution il n'y a pas de problèmes
image du forum

God of Partoch
Tabber motivé
Tab à donf !
2 photos
8782 messages
Modérateur
Administrateur
C'est un enchainement de 3 accords (en notation anglaise) qui faut jouer 3 fois de suite (x3)
Do → C
Ré → D
Mi → E
Fa → F
Sol → G
La → A
Si → B http://www.partoch.com/cours/cours_guitare,129,Les+accords+de+base.html wink
Edit : grillé ! icon_cheesygrin

Webby

4 messages
Mmmmmmmh, y'a quand même un truc que je pige pas icon_confused

Outro: C Cm G5 x3
E|----------------------------------------------------------|
B|--5-5-5-5-5-5-5-4-4-4-4-4-4-4-----------------------------|
G|--5-5-5-5-5-5-5-5-5-5-5-5-5-5-----------------------------|
D|--5-5-5-5-5-5-5-5-5-5-5-5-5-5-5-5-5-5-5-5-5-5-5-5-5-5-5-5-|
A|--3-3-3-3-3-3-3-3-3-3-3-3-3-3-5-5-5-5-5-5-5-5-5-5-5-5-5-5-|
E|------------------------------3-3-3-3-3-3-3-3-3-3-3-3-3-3-|


Donc "C" correspond a :


E|--------------|
B|--5-5-5-5-5-5-|
G|--5-5-5-5-5-5-|
D|--5-5-5-5-5-5-|
A|--3-3-3-3-3-3-|
E|--------------|

C'est ça ?

Non parce-que a la fin de la tablature y'a marqué sous forme d'image ce que c'est l'accord "C" mais j'ai pas l'impression que ca corresponde ? Ou alors (et c'est surement ça) c'est que j'y connais rien :)

Voila le lien de la tablature et en bas y'a les image dont je parle
http://www.partoch.com/tablature/green-day,wake-me-up-when-september-ends,303240...


God of Partoch
Petit tabber
1 photo
15190 messages
Modérateur
il y a plusieurs façons de faire un accord, sur l'image en bas de la tab c'est un accord dit "ouvert" avec des cordes a vides mais l'autre de la tablature est un accord de typé 'barré" ou un seul doigt barre plusieurs cordes. les deux sont justes mais ne sonnent pas tout à fait pareil.

rien que pour des accords de do (C) voilà une petite idée de ce qui peut être fait
image du forum

et on peu en trouver d'autres.

proverbe shaddock : s'il n'y a pas de solution il n'y a pas de problèmes
image du forum

4 messages
Ah ok je comprend mieux, du coup comment choisir la meilleur configuration ?


God of Partoch
5087 messages
kiba63
kiba63 a écrit :
Ah ok je comprend mieux, du coup comment choisir la meilleur configuration ?

C'est là que tu lis ce qu'il y a d'écrit sur la tablature. icon_cheesygrin Si l'auteur le fait d'une certaine manière et que tu souhaites t'en rapprocher le plus possible, "normalement" il faut suivre la partition/tablature (si elle est juste). Sinon, fais fonctionner tes oreilles, essaie les différentes possibilités et entends ce qui à ton goût est plus satisfaisant.


4 messages
Ok je vais m'en tenir a ce que dit la tablature ! Je pense pas pouvoir corriger ou le faire a l'oreille :)

Merci bcp en tout cas pour vos réponse !


God of Partoch
Petit tabber
Petit Downloader
11 photos
13085 messages
Modérateur
De toute façons, sur ce morceaux c'est ça:
dès que tu enclenche la disto, il faut jouer en power chords, c'est a dre les barres représenté sur ton premier message






>> Plan du Forum Débutants | suivi de la discussion | Tags : tablature, signifie, outro, lecture, site, les, voir, truc, interroge

+