Recherche Tablature My Game" De Deluxe

close
FILTRES DE LA RECHERCHE


1 message
Salut!!!
J'ai du mal a trouver les accords joués dans "My Game" De Deluxe, quelqu'un pourrait m'aider ?
Merci d'avance wink http://www.dailymotion.com/video/x14upkd_deluxe-my-game_fun


God of Partoch
Petit tabber
Petit Downloader
11 photos
13085 messages
Modérateur
j'ai completé le titre,
afin qu'il soit 'precis et complet' comme il se doit


1 message
Salut, voici les accords dans l'ordre :
D#m A#m7 A#m Abm7 Abm A#m7 A#m

Et voici ce à quoi ils correspondent wink

D#m
e/--11----------
B/--11----------
G/--11----------
D/--11----13---
A/--11----13---
E/--11----------

A#m7
e/--13-----------
B/--13--14------
G/--13-----------
D/--13-------15-
A/--13-----------
E/--13----------

A#m
e/--13-----------
B/--13--14------
G/--13-------15-
D/--13-------15-
A/--13-----------
E/--13----------

Abm7
e/--11-----------
B/--11--12------
G/--11-----------
D/--11-------13-
A/--11-----------
E/--11----------

Abm
e/--11-----------
B/--11--12------
G/--11-------13-
D/--11-------13-
A/--11-----------
E/--11----------

Je te conseille de regarder cette vidéo pour trouver la bonne rythmique wink https://www.youtube.com/watch?v=l5ausPO8J20
J'espère t'avoir aidé smiley-guitar






>> Plan du Forum Tablatures | suivi de la discussion | Tags : game, deluxe, jou, accords, les, trouver, recherche, tablature, mal

+