lecture de cette tablature

close
FILTRES DE LA RECHERCHE


1 message
bonjour à tous
débutant en guitare, je n'arrive pas à comprendre et donc à lire la tablature suivante....je me mélange un peu les pédales entre les accords et les cordes à fretter...
help! wobble

CAPO 6ème Case

INTRO :
Em G Am Em
|----------------------------------------------------------------0------|
|---0----0----0----3--3---3---3----1--1----1---1----0--0---0-------3--0-|
|---------------0---------------0----------------2----------------------|
|-----------------------------------------------------------------------|
|----------------------------------0----0----0--------------------------|
|-0----0----0------3----3---3-----------------------0----0----0---------|

Em G Am Em
|-----------------------------------------------------------------------|
|---0----0----0----3--3---3---3----1--1----1--------0--0--------0-------|
|---------------0---------------0----------------2----------2------0----|
|-----------------------------------------------------------------------|
|----------------------------------0----0----0--------------------------|
|-0----0----0------3----3---3----------------------------0--------------|


Webby

God of Partoch
9 photos
13094 messages
vincent34500
vincent34500 a écrit :
bonjour à tous
débutant en guitare, je n'arrive pas à comprendre et donc à lire la tablature suivante....je me mélange un peu les pédales entre les accords et les cordes à fretter...
help! wobble

CAPO 6ème Case

INTRO :
Em G Am Em
|----------------------------------------------------------------0------|
|---0----0----0----3--3---3---3----1--1----1---1----0--0---0-------3--0-|
|---------------0---------------0----------------2----------------------|
|-----------------------------------------------------------------------|
|----------------------------------0----0----0--------------------------|
|-0----0----0------3----3---3-----------------------0----0----0---------|

Em G Am Em
|-----------------------------------------------------------------------|
|---0----0----0----3--3---3---3----1--1----1--------0--0--------0-------|
|---------------0---------------0----------------2----------2------0----|
|-----------------------------------------------------------------------|
|----------------------------------0----0----0--------------------------|
|-0----0----0------3----3---3----------------------------0--------------|

Il n'y a pas d'accords à proprement parlé, c'est juste une indication si tu veux faire le morceau en rythmique.
tu ne t'en occupes pas, tu dois jouer les notes comme elles sont indiquées.
Les accords indiqués sont décalés dans ton post, mais quand on fait "Citer", ils reprennent leur place.

image du forum


Mieux vaut être bourré plutôt que con, ça dure moins longtemps... http://www.nicolevalerie.net - http://www.ptitelandaise.blogspot.com/ http://www.youtube.com/watch?v=bh-Qa-AzEIU






>> Plan du Forum Débutants | suivi de la discussion | Tags : ----, ---, ------, les, ----------------, ---------------, tablature, --------, bonjour

+