tablature hard times coming

close
FILTRES DE LA RECHERCHE


Petit causeur
55 messages
bonjour ! je cherche la tablature de cette musique : https://www.youtube.com/watch?v=A1yE932Vngw
apparament elle est pas tres connue , merci icon_cheesygrin

Salut !
Comme tu dis elle a pas l'air très connue. Mais c'est un 'simple' blues en A majeur.
Le problème c'est qu'il n'est pas bien accordé et je crois percevoir un drop D mais ça demande confirmation ...
Donc tu peux jouer avec un capo sur la 1ère case ou pas, de toute façon le type est entre les deux, donc c'est à toi de choisir icon_cheesygrin
Ca donne à peu près ça je pense :

e | -----------------------------
B | ---2-2---2-2---2-2----2-2----
G | ---2-2---2-2---2-2----2-2----
D | ---2-2---2-2---2-2----2-2---- x 2
A | -0---------------------------
E | -------4-----2-----(0)-------


e | ---2-2---2-2---2-2---2-2---0-0---0-0---0-0---0-0---------
B | ---3-3---3-3---3-3---3-3---0-0---0-0---0-0---0-0---------
G | ---2-2---2-2---2-2---2-2---1-1---1-1---1-1---1-1---------
D | -0-----------0-------------2-2---2-2---2-2---2-2---------
A | -------0-----------0-----------2-----------2-------------
E | -------------------------0-----------0-------------------



Petit causeur
55 messages
merci beaucoup icon_cheesygrin

Bon là je t'ai filé les accords du couplet et ça donne déjà quelque chose de pas mal, mais il faudra chercher un peu plus pour le chorus (et éventuellement l'intro si tu veux reproduire le morceau en entier).


Petit causeur
55 messages
je vais essayer de trouver sa :)






>> Plan du Forum Tablatures | suivi de la discussion | Tags : tablature, cherche, musique, bonjour, coming, hard, times, www, watch

+