Recherche tab, même esprit que nothing else matters

close
FILTRES DE LA RECHERCHE


3 messages
Bonjour à tous !

Je suis à la recherche d'un morceau de guitare qui serait dans le même esprit que ce moment de nothing else matters de mettalica :

-----------0--------|-----------0--------|-----------3----0-----|
--------0-----0-----|--------0-----0-----|--------0---------0---|
-----0-----------0--|-----0-----------0--|-----0--------0-----0-|
--------------------|--------------------|----------------------|
--------------------|--------------------|----------------------|
--0-----------------|--0-----------------|--0-------------------|



--2----3-----0----------|-----------3----0-----|--2---------------------|
---------3------3-------|--------0---------0---|-------3-----3----3-----|
-----------0------0-----|-----0--------0-----0-|---------2p0----0-------|
--0--0------------------|----------------------|--0--0------------------|
-------------3----------|----------------------|-------------3----------|
--------------------3-2-|--0-------------------|--------------------3-2-|



-----------3----0-----|--2----3-----0--------|--------3--2----2----|
--------0---------0---|---------3------3-----|--------3--0------0--|
-----0--------0-----0-|-----------0-------0--|-----0-----2---------|
----------------------|--0--0----------------|---------------------|
----------------------|-------------3--------|-----------2--2------|
--0-------------------|----------------------|--3------------------|

En espérant que vous puissiez m'aider !


God of Partoch
Petit tabber
Petit Downloader
11 photos
13133 messages
Modérateur
c'est nothing else matters que tu nous mets là,
n'est-ce pas?

-----------0--------|-----------0--------|-----------3----0-----|
--------0-----0-----|--------0-----0-----|--------0---------0---|
-----0-----------0--|-----0-----------0--|-----0--------0-----0-|
--------------------|--------------------|----------------------|
--------------------|--------------------|----------------------|
--0-----------------|--0-----------------|--0-------------------|



--2----3-----0----------|-----------3----0-----|--2---------------------|
---------3------3-------|--------0---------0---|-------3-----3----3-----|
-----------0------0-----|-----0--------0-----0-|---------2p0----0-------|
--0--0------------------|----------------------|--0--0------------------|
-------------3----------|----------------------|-------------3----------|
--------------------3-2-|--0-------------------|--------------------3-2-|



-----------3----0-----|--2----3-----0--------|--------3--2----2----|
--------0---------0---|---------3------3-----|--------3--0------0--|
-----0--------0-----0-|-----------0-------0--|-----0-----2---------|
----------------------|--0--0----------------|---------------------|
----------------------|-------------3--------|-----------2--2------|
--0-------------------|----------------------|--3------------------|


tu veux quoi des morceaux dans le même style,
en arpeges?

y'aurait peut etre, stairway to heaven de led zeppelin deja.


3 messages
Oui c'est sa. Et oui voila dans le même style en arpège, dacc je vais voir la tab !

Si tu en à d'autre hésite pas à me les faire partager
Merci






>> Plan du Forum Tablatures | suivi de la discussion | Tags : -----, ----, ------, --------, ---------, else, -----------, matters, nothing

+