tablatures de musiques de jeux videos


nouveau message Répondre
Recherche

#
voila je suis un pur fan de jeu videos et je fais de la guitare electrique et j'aime trop les muziques donc si vos avez des partitions n'hesité pas a m'en faire part svp merci d'avance les gars

+++ smiley-guitar smiley-guitar

#
Voila tu peu trouver des tab sympa sur abc tabs : http://www.abc-tabs.com/search/affiche.php?artist_id=775
Bonne gratte! wink

#
la musique de METAL GEAR SOLID sneak eater est EXELLENTE smiley-guitar smiley-guitar
ppunisherdu06@hotmail.fr pour la tab icon_cheesygrin

cranberries

Petit causeur
10 messages
#
Quelqu'un caoonaitrait le titre de la musique de début de fifa 98 ???

#
Salut tout le monde !!!

J'ai réussi à faire l'intro d'une des musiques de Final Fantaisie !

E:------2----2--------------------------------
A:-----3--3------------------------------
D:---2-----2------------------------------- (x2)
G:-0------------------------------------
B:--------------------------------------
E:--------------------------------------

E:----0--0-----3--3-
A:---0-0------0-0---
D:--0---0----0---0--
G:-0--------0-------
B:------------------
E:------------------

E:----2--2------3-2--2---------
A:---3-3------3----3-----------
D:--2---2----2------2----------
G:-0--------0------------------
B:-----------------------------
E:-----------------------------


E:----0--0-----3--3-
A:---0-0------0-0---
D:--0---0----0---0--
G:-0--------0-------
B:------------------
E:------------------

Voilà, elle est pas bien compliquer à jouer et qui plus est elle est belle à jouer.

Bonne gratte

#
J'ai écrit :


 Citation :
Salut tout le monde !!!

J'ai réussi à faire l'intro d'une des musiques de Final Fantaisie !

E:------2----2--------------------------------
A:-----3--3------------------------------
D:---2-----2------------------------------- (x2)
G:-0------------------------------------
B:--------------------------------------
E:--------------------------------------

E:----0--0-----3--3-
A:---0-0------0-0---
D:--0---0----0---0--
G:-0--------0-------
B:------------------
E:------------------

E:----2--2------3-2--2---------
A:---3-3------3----3-----------
D:--2---2----2------2----------
G:-0--------0------------------
B:-----------------------------
E:-----------------------------


E:----0--0-----3--3-
A:---0-0------0-0---
D:--0---0----0---0--
G:-0--------0-------
B:------------------
E:------------------

Voilà, elle est pas bien compliquer à jouer et qui plus est elle est belle à jouer.

Bonne gratte


Je m'excuse parce que je me suis un peu gourer icon_redface

l'ordre c :

E
B
G
D
A
E

Et l'accord c'est un Ré ( D )

#
Moi je cherche la tablature de la musique Silent hill 2!

A tout Hazard! icon_redface

Merci

#
Voilà un exemple en vidéo:http://www.youtube.com/watch?v=nd8rBt0OUQQ
http://www.youtube.com/watch?v=wBhBwXWlun4

#
Moi je recherche la musique de Final Fantasy VII icon_cheesygrin
Si vous l'avez... j'en serais très reconnaissant wink
lien lien si d'ssous:
http://www.youtube.com/watch?v=MOJ91H4mraU~~feature=related


marci icon_cheesygrin


nouveau message Répondre Recherche


Répondre à cette discussion >>

plan Plan du Forum Tablatures||Tags : les, videos, guitare, fais, electrique, aime, tablatures, jeu, fan