Probléme pour jouer un doigter !

close
FILTRES DE LA RECHERCHE


Petit causeur
55 messages
Salut, j'ai un probleme sur ma tablature de l'intro I love Rock'n Roll :

-------------------------------------------------
-------------------------------------------------
-------------------------------------------------
--------------------2-2----4-4-------------------
--2-2----2-2--------0-0----2-2----------2-2------
--0-0----0-0----3------------------3----0-0------

le probleme c'est que j'arrive pas a faire le 4-4 vous savez comment le faire autrement ?
2-2


God of Partoch
9 photos
13128 messages
roms-01
roms-01 a écrit :
Salut, j'ai un probleme sur ma tablature de l'intro I love Rock'n Roll :

-------------------------------------------------
-------------------------------------------------
-------------------------------------------------
--------------------2-2----4-4-------------------
--2-2----2-2--------0-0----2-2----------2-2------
--0-0----0-0----3------------------3----0-0------

le probleme c'est que j'arrive pas a faire le 4-4 vous savez comment le faire autrement ?
2-2

Vas voir ce lien, ça peut te rendre service : http://www.youtube.com/watch?v=2waTz43Pfkg

Mieux vaut être bourré plutôt que con, ça dure moins longtemps... http://www.nicolevalerie.net - http://www.ptitelandaise.blogspot.com/ http://www.youtube.com/watch?v=bh-Qa-AzEIU

Petit causeur
55 messages
merci je connais Galgomusic ! c'est Eric Legaud !
je regarde ! sinon d'autre reponse ??


Sous Dieu du Forum
Mega Tabber
Mangeur de Tabs
6 photos
3172 messages
Bah, index sur la corde LA en deuxiéme case et annulaire sur la corde de RE en 4éme case et tu joue les 2 cordes ensemble d'un seul coup de médiator...2 fois wink

Ou alors, j'ai pas compris ta question icon_cheesygrin

smiley-guitar


God of Partoch
Petit tabber
Petit Downloader
11 photos
13117 messages
Modérateur
Tout à fait.

je pense que moi je joue 3 cordes,
pas 2.

enfin, fô qu'ça sonne,
c'est tout wink

INTRO et refrains:
E5 E5 A5 B5 E5 E5 A5 B5 E5
E|------------------------------------------ -------------------------------------------
B|------------------------------------------ -------------------------------------------
G|-1--1-----1--1----------2--2-----4--4----- --1--1-----1--1---------2--2-----4----1--1-
D|-2--2-----2--2----------2--2-----4--4----- --2--2-----2--2---------2--2-----4----2--2-
A|-2--2-----2--2----------0--0-----2--2----- --2--2-----2--2---------0--0-----2----2--2-
E|-0--0-----0--0-----3b4-----------------3b4 --0--0-----0--0----3b4-------------0--0--0-

drums E5 Gimmick: TDS: chant
--X—X--- E----------------------------------
--X—X--- B-------------- --15b17r15-12--------
--X—X--- G---1--1----------------------14-12--
--X—X--- D---2--2---------------------------
--X—X--- A---2--2---------------------------
--X—X--- E---0--0---------------------------



Artiste en devenir
2 photos
517 messages
C'est quoi le problme exactement avec le 4-4?


Petit causeur
55 messages
cest le

4-4
2-2

que jarrive pas a faire sonner car mes doights sont pas assez long ! ya pas dautr moyen de le jouer ce son ou le

4-4
2-2 ?


Sous Dieu du Forum
Mega Tabber
Mangeur de Tabs
6 photos
3172 messages
Pour que les doigts grandissent, tu manges un bol de soupe tous les soirs wink

Si t'aimes pas la soupe ??? tu peut jouer case 7 sur corde MI grave et case 9 sur corde LA..c'est idem et l'espacement sera moindre pour poser les 2 doigts récalcitrants.

smiley-guitar


Artiste en devenir
2 photos
517 messages
sandinista
sandinista a écrit :
Pour que les doigts grandissent, tu manges un bol de soupe tous les soir wink

Si t'aimes pas la soupe ??? tu peut jouer case 7 sur corde MI grave et case 9 sur corde LA..c'est idem et l'espacement sera moindre pour poser les 2 doigts récalcitrans.

smiley-guitar

Bon courage pour enchainer avec le 3 juste apres icon_cheesygrin ce sera pas forcement plus simple. Bosses le doucement, c'est tout ce qu'on peut te conseiller wink


God of Partoch
Petit tabber
Petit Downloader
11 photos
13117 messages
Modérateur
en attendant que tes doigts grandissent,
Tu peux aussi faire ça:

c'est pas tres orthodoxe, mais bon, voila....

INTRO et refrains:
E5 E5 A5 B5 E5 E5 A5 B5 E5
E|------------------------------------------ -------------------------------------------
B|------------------------------------------ -------------------------------------------
G|-1--1-----1--1----------2--2-----4--4----- --1--1-----1--1---------2--2-----4----1--1-
D|-2--2-----2--2----------2--2-----4--4----- --2--2-----2--2---------2--2-----4----2--2-
A|-2--2-----2--2----------0--0-----x--x ---- --2--2-----2--2----------0--0----x ----2--2-
E|-0--0-----0--0-----3b4-----------------3b4 --0--0-----0--0----3b4-------------0--0--0-

drums E5 Gimmick: TDS: chant
--X—X--- E----------------------------------
--X—X--- B-------------- --15b17r15-12--------
--X—X--- G---1--1----------------------14-12--
--X—X--- D---2--2---------------------------
--X—X--- A---2--2---------------------------
--X—X--- E---0--0---------------------------



Artiste en devenir
2 photos
517 messages
Ou en drop D ca peut le faire


Petit causeur
55 messages
?? cest comment ?


Artiste en devenir
2 photos
517 messages
A la place de t'accorder en EADGBE, tu t'accordes en DADGBE. Pour la petite info on dit d'un accordage qu'il est "Drop" quand tu desaccorde le mi grave. Mais apres c'est le bordel quand t'es debutant pour t'y retrouver mais grosso merdo, comme ta corde de mi est accordé deux demis tons plus bas, ca fait qu'a la place de jouer par exemple ca:

---
---
---
-4-
-4-
-2-

Tu jouera ca

---
---
---
-4-
-4-
-4-

Finalement ca simplifie le doigté, mais apres si t'es vraiment debutant je suis pas sur que ce soit une bonne idée, puis la simplicité t'aidera pas a progresser.


God of Partoch
Petit tabber
Petit Downloader
11 photos
13117 messages
Modérateur
t'as regardé ma 2eme réponse?

INTRO et refrains:
E5 E5 A5 B5 E5 E5 A5 B5 E5
E|------------------------------------------ -------------------------------------------
B|------------------------------------------ -------------------------------------------
G|-1--1-----1--1----------2--2-----4--4----- --1--1-----1--1---------2--2-----4----1--1-
D|-2--2-----2--2----------2--2-----4--4----- --2--2-----2--2---------2--2-----4----2--2-
A|-2--2-----2--2----------0--0-----x--x ---- --2--2-----2--2----------0--0----x ----2--2-
E|-0--0-----0--0-----3b4-----------------3b4 --0--0-----0--0----3b4-------------0--0--0-

drums E5 Gimmick: TDS: chant
--X—X--- E----------------------------------
--X—X--- B-------------- --15b17r15-12--------
--X—X--- G---1--1----------------------14-12--
--X—X--- D---2--2---------------------------
--X—X--- A---2--2---------------------------
--X—X--- E---0--0---------------------------



Petit causeur
55 messages
oui ,mais non elle est trop compliquer !






>> Plan du Forum Tablatures | suivi de la discussion | Tags : ----, faire, probleme, probl, roll, tablature, intro, love, rock

+