riffs de fin pour blues

close
FILTRES DE LA RECHERCHE


Petit causeur
4 photos
19 messages
Bonjour, actuellement je joue beaucoup de blues (improvisation), et il y a des riffs qui sonnent typiquement blues et qui sont souvent utilisé pour commencer ou pour finir la "chanson".. comme ceux-ci:
---5---4---3----
----------------
-/5-5-4-4-3-3-2-
----------------
----------------
----------------

ou
-----0---0---0---
------0---0---0--
--/4---3---2---1--
------------------
-----------------
------------------
smile

J'aimerais juste savoir comment on les "formes"? (Et si vous en avez ben ce serai pas de refus... icon_cheesygrin )


Petit causeur
4 photos
19 messages
des trucs comme ca; http://www.youtube.com/watch?feature=player_detailpage&v=98jrc2Mw3D4#t=201s

Parce que celui la, j'ai galérer pour le trouver à l'oreille..wobble
smile

Moi je met un petit phrasé du genre

-----------5--------------------------------------------
------5---------8-----------------------------------------
--7----------------8-7-5-----------------------------------
---------------------------7-5----------------------------
---------------------------------7/5-3----------------------
----------------------------------------5----------------

C'est un exemple bien entendu il existe moultes conbinaisons de ce genre avec les gammes pentatoniques/Blues . Et il faut la deplacer sur le manche selon la tonalité.


Petit causeur
4 photos
19 messages
Ah oui c'est pas mal, mais ca c'est a mettre dans l'impro smile

Moi ce que je cherche à faire, ce sont des sortes de descentes sur le manche pour commencer ou finir l'impro. smile mais merci déjà smile


Au Hit Parade
1 photo
1805 messages
On appelle ça des turnaround,

tu peux adapter à la tonalité, et surtout ça se ressent!


Petit causeur
4 photos
19 messages
Ok merci icon_cheesygrin comme ça je vais déjà pouvoir chercher ca sur internet..

Ca ce ressent oui ok, quand c'est sur 2 cordes. Mais celui de Bertignac sur la video est tout de même assez compliqué à trouvé...je trouve...






>> Plan du Forum Débutants | suivi de la discussion | Tags : ---, blues, riffs, souvent, utilis, finir, commencer, comme, chanson

+