Votre Avis Sur ma TAB de Ghostbuster ?


Discussion Verrouillée
Recherche

#
Salut a tous, j'ai vu la TAB de ghostbusters sur le site, et j'ai trouvé qu'elle etait pas très complète, alors j'ai complété ce qui manquait...
C'est correct a 99,999999999.... % je dirais,
Si il y'a des interessé pour me dire ce qu'il en pense...



Ghostbusters TAB


Intro
|----------------------------------------------------------
|----------------------------------------------------------
|----------------------------------------------------------
|---------------------------------------------------7~----
|----------------------------------10--9--8--7---------8~
|---//////----8-----------------------------

|----------------------------------------------------------
|----------------------------------------------------------
|-------0h3-0h4-0h3-0h4-0h3-0h4-0h3-0h4---
|----------------------------------------------------------
|----------------------------------------------------------
|----------------------------------------------------------

Rythm

         (-pm-)
|----------------------------------------------------------
|----------------------------2----5---------------------
|----------4----------------2----4--------------------
|----------4----------------2----2--------------------
|-----2---2----------------0----0----------------------
|-----------------0h2h4--------------------------------
( apres chaque " Ghost Buster !" jouer une fois comme ceci

      (-pm-)
|----------------------------------------------------------
|------------------------------2--2----5----------------
|----------4------------------2--2---4----------------
|----------4------------------2--2---2--------------
|-----2---2------------------0--0---0-----------------
|------------------0h2h4--------------------------------

Petit air du début 

|------------11------9-----------------------------
|----12-12-----12---------10----12-12-12-12-10-12-
|----------------------------------------------------------
|----------------------------------------------------------
|----------------------------------------------------------
|----------------------------------------------------------

|----------11-----9-----------------------9-----
|--12-12-----12----10----12-12-12-12-10------12--
|----------------------------------------------------------
|----------------------------------------------------------
|----------------------------------------------------------
|----------------------------------------------------------


Verse 

|----------------------------------------------------------
|----------------------------------------------------------
|-----///7~-------7~--------7~------7~---------------
|-------------9-x-------9-x-----9-x-------7h8h9----
|----------------------------------------------------------
|----------------------------------------------------------

 solo 1

|--------------7~~~-------------------------------------
|----------------------7h9-7h8-------------------------
|------------------------------------9~~--------------
|----------------------------------------------------------
|----------------------------------------------------------
|----------------------------------------------------------

|----------------------------------------------------------
|----------------------------------------------------------
|----------------------------------------------------------
|-----9p7-----------------------------------------------
|-----------9-8-7-6b(7)---------------------------------
|---------------------------7~~~~~////---------------

|----------------------------------------------------------
|-------10h12--10h11b(12)--------------------------------
|----------------------------------------------------------
|----------------------------------------------------------
|----------------------------------------------------------
|----------------------------------------------------------

 solo 2

|----------------------------------------------------------
|----10p9---------9p7------------------------------
|-----------11------------9----7h8----------------------
|---------------------------------------9------7b(9)------
|----------------------------------------------------------
|----------------------------------------------------------

solo 3
|----------------------------------------------------------
|----------15h14-----------------------------------------
|--------------------16-----14 ---16b(18)--16(18)--16-
|----------------------------------------------------------
|----------------------------------------------------------
|----------------------------------------------------------

4 solo 

|----------------------------------------------------------
|-------15----12-----14h12----------------12~~~---------------
|--------------------------------12--------------------------
|---------------------------------------------------------
|----------------------------------------------------------
|----------------------------------------------------------

|----------------------------------------------------------
|----10p9------------------------------------------------
|-----------11---9---7h8---------------------------------
|----------------------------/9~~~------------------------
|----------------------------------------------------------
|----------------------------------------------------------

|----------------------------------------------------------
|----------------------------------------------------------
|----------------------------------------------------------
|-------9p7-----------------------------------7-------------
|-------------9-8-7------------6-7-8-9----------------9~~~------
|----------------------7-10------------------------------

Pont

|----------------------------X--X-------------------------
|----------------------------X--X-------------------------
|-----4----2----------------X--X-----0----0------------
|-----4----2----------------X--X-----0----0------------
|-----2----0----------------X--X-----2----2------------
|--------------------------- X--X-------------------------

Aigu

|-----17b(19)~~~----16b(17)-16--------------------------
|----------------------------------17----------------------
|--------------------------------------16-------------------
|----------------------------------------------------------
|----------------------------------------------------------
|----------------------------------------------------------
Pont 2

|----------------------------------------------------------
|----------------------------------------------------------
|----------------------------------------------------------
|---4--4---------4-4-4-4-4-------------------------
|----------------------------------------------------------
|---2--2---------2-2-2-2-2--------------------------

|----------------------------------------------------
|-----/7~~~------6~~~----------------------------
|-----------------------------7~~~---------------
|----------------------------------------------------------
|----------------------------------------------------------
|----------------------------------------------------------


|----------------------------------------------------------
|----------------------------------------------------------
|------------------------------------9h11-------------
|---------------------/x------9------9h11-----------
|---------------------/x------9-----------------
|----------------------------------------------------------


Solo 5

|---------------------------------------------------------
|----------------12--12h14p12--------12h14p12------12~~-
|-----/11--14--------------------14------------14----
|----------------------------------------------------------
|----------------------------------------------------------
|----------------------------------------------------------

Solo 6 ( pareil que solo 4 )

Solo 7

|----------------------------------------------------------
|----------------------------------------------------------
|----11b13------9b(11)--9---7--7b(9)---7----------------
|---------------------------------------------9~~~~-----
|----------------------------------------------------------
|----------------------------------------------------------

Solo 8

( pareil que solo 3)

Solo 9

|----------------------------10b(11)---12----11p10--------
|-----/12------11p10h11-----------------------------12~~--
|---------------------------------------------------------
|----------------------------------------------------------
|---------------------------------------------------------
|----------------------------------------------------------

Solo 10
|----14b(16)--14--13--12--11----------------------------
|-----------------------------------14h15-----12------------
|----------------------------------------------------------
|----------------------------------------------------------
|----------------------------------------------------------
|----------------------------------------------------------

|----------------------------------------------------------
|----------------------------------------------------------
|----------------------------------------------------------
|---------7h9-------7b(9)-------------------------------
|----------------------------------------------------------
|----------------------------------------------------------

Solo 11

|----------------------------------------------------------
|----------------------------------------------------------
|------------4--4p2--------------------------------
|---------4-----------4p2----0--2--0-------------
|------2----------------------------------2~~~----
|----------------------------------------------------------

Ending

|----------------------------------------------------------
|------------------10-----------------------10b(12)--------
|--------9b(11)------------9b(10)-9b(11)--------------------
|----------------------------------------------------------
|----------------------------------------------------------
|----------------------------------------------------------
Fin


(je sais qu'on ne peut pas apeller ça des solo, mais c'est quelque riff sympa qui y'a a divers moment dans la chanson


chipie.foxtrot

Membre VIP
6 messages
Modérateur
#
Bonjour, ce n'est pas sur le forum qu'il faut déposer la tab ,rien ne t'empêche
de l'ajouter sur le site ,en dessous les tabs du site, un espace dans lequel on
peut déposer des avis et des commentaires est prévu ...
je verrouille

je joue toujours de la guitare à six schtroumpfs !

Discussion Verrouillée Recherche


Discussion Verrouillée

plan Plan du Forum Tablatures||Tags : ----, solo, -----, ------, ---, ----------------, ---------, tab, -------