Exercices de tout genre Gamme, Rythmique, Jeux avec doigt etc ...

close
FILTRES DE LA RECHERCHE

Bonjours !!! à vous tous chère PARTOCHEUR.
Ce topic à était créer dans le seul but de faire partager vos exercice favorie Alors n'hésitait pas à mettre tous vos entrainement sur les gammes ou sur vos rythmique favorite smiley-guitar.
Quand à moi j'essayerai de vous proposer 1 exercices par semaine icon_cheesygrin
Alors tous à vos guitare smiley-guitar !!! (en fin d'abord donner vos exercices)

Bon pour commencer on vas déjà parler de la
GAMME PENTATONIQUE MINEUR


-5 -8-------------------------------------5 -8--------------------------------------
-----5-8-----------------------------5-8--------------------------------------------
---------5-7---------------------5-7------------------------------------------------
-------------5-7 -------------5-7 --------------------------------------------------
-----------------5-7-----5-7--------------------------------------------------------
---------------------5 -8-----------------------------------------------------------


Bon voila la GAMME PENTATONIQUE A MINEUR . Les notes rouges sont les fondamentales donc ce sont les A . Cette position est la forme n°1 de la GAMME PENTATONIQUE MINEUR , ils en existent 5 position. PS : si vous déplacer cette forme sur le manche par exemple sur la frette 12 sa deviendra la
GAMME PENTATONIQUE MINEURE de E


GAMME PENTATONIQUE MINEURE POSITION 2

-8-10-------------------------------------------8-10-----------------------------------------
------8-10 ---------------------------------8-10 ----------------------------------------------
-----------7-9-------------------------7-9-------------------------------------------------
---------------7 -10---------------7 -10-------------------------------------------------------
--------------------7-10-----7-10------------------------------------------------------------
-------------------------8-10---------------------------------------------------------------





GAMME PENTATONIQUE MINEUR POSITION 3

-10-12-----------------------------------------------------10-12-------------------------------
-------10 -13-----------------------------------------10 -13-------------------------------------
-------------9-12-------------------------------9-12-----------------------------------------
------------------10-12-------------------10-12------------------------------------------------
------------------------10-12 -------10-12 ------------------------------------------------------
------------------------------10-12----------------------------------------------------------




GAMME PENTATONIQUE MINEURE POSITION 4

-12-15-------------------------------------------------------12-15-----------------------------
-------13-15-------------------------------------------13-15-----------------------------------
-------------12-14 -------------------------------12-14 -----------------------------------------
-------------------12-14-------------------12-14-----------------------------------------------
-------------------------12 -15-------12 -15-----------------------------------------------------
-------------------------------12-15---------------------------------------------------------



GAMME PENTATONIQUE MINEUR POSITION 5

-15-17 ---------------------------------------------------------15-17 ---------------------------
-------15-17---------------------------------------------15-17---------------------------------
-------------14 -17---------------------------------14 -17---------------------------------------
-------------------14-17--------------------14-17----------------------------------------------
-------------------------15-17--------15-17----------------------------------------------------
-------------------------------15--17 ---------------------------------------------------------


ATTENTION !!! la position 5 ce joue aussi à partir de la 3éme frettes

PS : Pour LA GAMME PENTATONIQUE MAJEURE ce sont EXACTEMENT LES MÊME FORMES qui sont utilisée sauf que toute les postions sont décalée d'un cran donc la POSITION 2 MINEUR = la POSITION 1 MAJEUR ainsi de suite

1er éxercice : GAMME PENTATONIQUE MINEURE DE LA : SEGMENT D4OCTAVE DE LA EN LA

-----------------------------------5 -----------5 ------------------------------------------
-------------------------------5-8---8-5--------------------------------------------------
----------------------------5-7-----------7-5----------------------------------------------
---------5-7 -5---------7 -7 ----------------7 ---7 ----------------------------------------
-----5-7-------7-5------------------------------------------------------------------------
-5 -8---------------8-5 --------------------------------------------------------------------



Chaque forme de la GAMME PENTATONIQUE MINEURE de LA
s'étend sur plus d'une octave. Cependant beaucoup de guitariste se cantonnent aux notes comprise dans une octave pour ce concentrer sur des riffs ou des solos mélodiques. Vous divisez ici la forme 1 en deux segments d'une octave (d'un LA grave à un LA aigue). Ensuite appliquez cette méthode aux autres formes pentatonique mineur en les divisant en deux octaves.







>> Plan du Forum Débutants | suivi de la discussion | Tags : exercices, rythmique, alors, seul, tait, faire, but, exercice, partager

+