Les accords! Help.

close
FILTRES DE LA RECHERCHE


Petit causeur
16 messages
Je sais que ce message est du déjà vu, enfin je pense.. Mais, j'ai lu tout ce qui concerne "l'aide accords/ solflège" pour les débutants, mais sans quelque chose de concret je ne comprends pas.. Ce que j'appelle "concret" c'est une démo directe sur la guitare (vidéo ou dessin). Même si tout est très bien expliqué, je suis totalement débutant alors en regardant sur le net, c'est pas super facile!

Heeeelp me please! icon_confused


Pilier de Forum
5 photos
1150 messages
Bonjour, merci, au revoir.


Bonjour, peux-tu expliciter un peu ton message puisque c'est pas super clair.


Petit causeur
16 messages
En gros, je voudrais comprendre le solflège enfin les accords de la guitare mais vraiment quelque chose de concret (ex: Mi) -> savoir où et comment placer mes doigts . Tu me compends mieux? ^^'


God of Partoch
5644 messages
Tu sais faire un mi majeur et un la majeur ?
Et mineur ?

Tu sais en haut du manche ?

Si oui, ces deux positions peuvent etre décalées sur tout le manche afin de garder la même forme mais un autre accord

EN GROS :

si tu prend ton mi majeur : que tu le décale de 3 cases ( donc 3 demi tons ), tu obtient un Sol majeur

--0------------------------------------------------------3------------
--0------------------------------------------------------3------------
--1------------------------------------------------------4------------
--2------------------------------------------------------5------------
--2------------------------------------------------------5------------
--0------------------------------------------------------3------------

L'important est de connaitre les postions de base


Si tu prend ton La majeur et que tu le décale de 3 cases, tu obtient un Do majeur


---0-------------------------------------------------------3----------
---2-------------------------------------------------------5----------
---2-------------------------------------------------------5----------
---2-------------------------------------------------------5----------
---0-------------------------------------------------------3----------
--------------------------------------------------------------------

Pour utiliser ce types d'accord il est important de savoir faire les barrés !

Avec les mineurs c'est pareil on décale

Tu peux ensuite rajouter des notes à ces accords pour les enrichir ( 7e, quarte, sixte ...etc )


Petit causeur
16 messages
Ah oui je vois merci! Je vais encore travailler (:






>> Plan du Forum Solfège | suivi de la discussion | Tags : tout, les, concret, accords, solfl, sans, butants, chose, quelque

+