A quelle gamme appartient cette partition?

close
FILTRES DE LA RECHERCHE

Salut à tous,
Voici la tablature (honteusement pompée sur le net) du solo de Rock Me Baby tel que joué par Eric CLapton au Crossroads '04

|----------------------------------------------------------|
|--------11-13-13b15r13p11----------11-13b15r13-11h12------|
|---/12----------------------/12----------------------12---|
|--------------------------------------------------------14|
|----------------------------------------------------------|
|----------------------------------------------------------|

|------------------------------------------------------------------------|
|-----------11-13-13b15-15r13-13-11-------11-13-13b15--13-11----11-13b15-|
|-----/12---------------------------12-12--------------------12----------|
|------------------------------------------------------------------------|
|------------------------------------------------------------------------|
|------------------------------------------------------------------------|

|------------------------------------------|
|----13p11-----11-11-----------------------|
|12--------12--------12--------------------|
|------------------------12pbr10p8----8----|
|----------------------------------10---10-|
|------------------------------------------|

|--15-15-15--------------------------15---------------------|
|-----------18-15--------------15-18----18-15---------------|
|-----------------17b19--15-17----------------17b19--15-----|
|-------------------------------------------------------17-|
|-----------------------------------------------------------|
|-----------------------------------------------------------|

|---------------10-9-8----8-----------------------------------------------|
|---------8---8--------11---11--8---8-------------------------------------|
|-----/9----9---------------------9---9/12--10----------------------------|
|----------------------------------------------10b12r10p8--10p8-----------|
|----------------------------------------------------------------10p8-10--|
|-------------------------------------------------------------------------|


J'aimerais allonger et modifier ce solo, mais pour ca je devrais d'abord connaitre la gamme utilisée. Est ce que quelqu'un pourrait me renseigner sur la question?

Merci!

honnie

Artiste en devenir
703 messages
je dirais a vu de nez penta de sol mineur wink (et c'est une tablature pas une partition)




>> Plan du Forum Solfège | suivi de la discussion | Tags : ----, ---, --------, gamme, solo, crossroads, clapton, ----------, ---------------------------



+