titre d'un succes annees 80

close
FILTRES DE LA RECHERCHE


God of Partoch
Petit tabber
Petit Downloader
11 photos
13117 messages
Modérateur
Bonjour,

qqun pourrait-il me rappeller le titre
d'un morceau des annees 80,
dont le gimmick de synthé faisait un peu ça:

-0--0-0-4-5-7-5-4-0---------0-2-4-2-0-----
--------------------------2-----------2---
---------------------x2------------------x2
------------------------------------------------------
-------------------------------------------------------
------------------------------------------------------

---------0------------------------------
-----1-3---3-1--------------------------
-2-2-----------2-----etc----------------
----------------------------------------
----------------------------------------
----------------------------------------


merci d'avance!!


ça ne serait pas "go again" de ... je sais plus qui ? icon_cheesygrin sad orchestral manoeuvre ou un truc du genre ?
j'ai cherché sur tutube et rien trouvé..


c'est bien à ça que je pensais wink , mais l'important, c'est Pascal17 icon_cheesygrin


God of Partoch
Petit tabber
Petit Downloader
11 photos
13117 messages
Modérateur
SUPER!!!!!

mais c'est rageant,
je ne peux pas regarder d'ici...


je regarderai ce soir,
en tout cas, merci du coup de main, et je croise les doigts,
pourvu que ce soit ça bump .


God of Partoch
Petit tabber
5845 messages
J'ai joué ta tab, la première ligne est la même... Je pense pas me tromper! wink


God of Partoch
Petit tabber
Petit Downloader
11 photos
13117 messages
Modérateur
ca me démange...

le but est d'en faire un arrangement bien Rock... violent2


Artiste en devenir
622 messages
le clip est tellement kitch icon_cheesygrin
c'était vraiment spé les années 80.


God of Partoch
Petit tabber
5845 messages
pascal17
pascal17 a écrit :
ca me démange...

le but est d'en faire un arrangement bien Rock... violent2


Souvent, ça marche bien les titres New wave revisités en rock! wink


God of Partoch
Petit tabber
Petit Downloader
11 photos
13117 messages
Modérateur
YESSSS!

C'est ça!
merci icon_cheesygrin

plus qu'à bosser.....


PS: c'est vrai que le clip il est carrement kitchissime chanteur


Pilier de Forum
10 photos
1404 messages
Super cette chanson love
Pascal, tu nous mettras un lien vidéo quand tu auras travaillé dessus?

Big Persecutor





>> Plan du Bienvenue au PUB !! | suivi de la discussion | Tags : titre, -----------, annees, dont, gimmick, faisait, synth, des, morceau

+