Gun n roses/Iggy pop : partitions introuvable !

close
FILTRES DE LA RECHERCHE

Salut,

J'ai récemment trouvé un groupe rock (inspiration iggy pop, gun n roses). Je bosse depuis quelques semaines sur plusieurs morceaux (dont j'ai essayer de faire un transcription batterie) :
- Easy rider > Iggy Pop
- Search and Destroy > Iggy Pop
- New Rose > Gun N Rose’s
- Down on the farm > Gun N Rose’s
- Attitude > Gun N Rose’s
- I don't care about you > Gun N Rose’s
Cependant je voudrais trouver d'autres transcriptions afin de m'assurer de la qualité des miennes... je débute de l'aide serait donc bienvenu.
J'ai réalisé des recherches sur une myriade de sites en vain.... Si vous avez des infos merci d'avance...

patacoldemars

Au Hit Parade
Grand Tabber
1740 messages
Si tu cherche les tabs (et non des partoches) pour guitar, je les ai trouvées. Je trouve bizarre que tu n'ai pas trouver ça (excuse moi si tu cherche des partoche de batteries icon_cheesygrin) Mais je ne peux pas t'indiquer le lien, car il n'y en a pas... enfin, il te suffit de faire un copier/coller icon_cheesygrin

J'ai mis les titre en rouge pour diferrencier les tabs wink

New rose:

Tab Notation
A/B Play chord A slide up to chord B
AB Play chord A slide down to chord B
19B// Strike note then bend up and down several times
X Muted string

Is she really going out with him
Intro: (Riff 1)
D B E A
E|------------------------------------------|
B|------------------------------------------|
G|--X-X--7--4-4--9-9------------------------| Repeat
D|--X-X--7--4-4--9-9-7-7--------------------| 5X
A|--X-X--5--2-2--7-7-7-7--------------------|
E|-------------------5-5--------------------|

Riff 2
|---------------------------------------------------|
|---------------------------------------------------|
|---------------------------------------------------| Repeat
|-10/1210-10-10--10-10-109/10-10-10-109/10-10-10-| 2x
|--8/108---8--8---8--8--87/8---8--8--87/8---8--8-|
|---------------------------------------------------|

***edit modération,les textes et les paroles sont protégés par des droits d'auteurs
je les supprime

|------------------------------------------|
|------------------------------------------|
|--X-X--7--4-4--9-9------------------------| Repeat
|--X-X--7--4-4--9-9-7-7--------------------| 5X
|--X-X--5--2-2--7-7-7-7--------------------|
|-------------------5-5--------------------|

|---------------------------------------------------|
|---------------------------------------------------|
|---------------------------------------------------| Repeat
|-10/1210-10-10--10-10-109/10-10-10-109/10-10-10-| 2x
|--8/108---8--8---8--8--87/8---8--8--87/8---8--8-|
|---------------------------------------------------|

In this next part play chord B, right after the lyrics end play what is
tabbed below the lyric line.......

B
I never thought this would happen to me
|---------------------------------------------------|
|---------------------------------------------------|
|--------------------------------------19B////--|
|---------------------------------------------------|
|---------------------------------------------------|
|---------------------------------------------------|

B
On the same_______ machine
|-----------------------------------------|
|-----------------------------------------|
|-------------------------19B////21---|
|-----------------------------------------|
|-----------------------------------------|
|-----------------------------------------|

B Repeat 2x [---------]
****
|-----------------------------------------------------|
|------------------------------17B(17)-15-17-15-17-15-|
|-----------------------------------------------------|
|-----------------------------------------------------|
|-----------------------------------------------------|
|-----------------------------------------------------|

B
****
|------------------------------------------------------|
|------------------------------17B(17)-15-17-15-17-19B-|
|------------------------------------------------------|
|------------------------------------------------------|
|------------------------------------------------------|
|------------------------------------------------------|

|------------------------------------------|
|------------------------------------------|
|--X-X--7--4-4--9-9------------------------| Repeat
|--X-X--7--4-4--9-9-7-7--------------------| 5X
|--X-X--5--2-2--7-7-7-7--------------------|
|-------------------5-5--------------------|

****

|---------------------------------------------------|
|---------------------------------------------------|
|---------------------------------------------------| Repeat
|-10/1210-10-10--10-10-109/10-10-10-109/10-10-10-| Several times
|--8/108---8--8---8--8--87/8---8--8--87/8---8--8-|
|---------------------------------------------------|

|--------|
|--------|
|--------|
|-9-7-7--|
|-9-7-7--|
|-7-5-5--|

So here it is.....enjoy...... any comments...
blah...blah.... send them to esteban_q@hotmail.com

---------------------------------------------------------

New Rose
Guns N' Roses
The spaghetti incident?


Chords by: Gonzalo Rivero
marida@cpsarg.com


Intro:[D5 B5 E5 A5]
[F#5 G#5 E5] x 2
****
4/4
Gtr I
E E E E E E E E E E E E E E E E E E E E E E E E H Q E E
|-----------------|-----------------|-----------------|--------------|
|-----------------|-----------------|-----------------|--------------|
|-----------------|-----------------|-----------------|--------------|
|---2---2---2---2-|---2---2---2---2-|---2---2---2---2-|--------------|
|-----------------|-----------------|-----------------|--------------|
|-0---0---0---0---|-0---0---0---0---|-0---0---0---0---|---------0-0--|


Q E E +E E Q +E E Q Q E E Q E E +E E Q Q Q Q E E
|-----------------|-----------------|-----------------|--------------|
|-----------------|-----------------|-----------------|--------------|
|-2---------------|-------0--1------|-2---------------|----1---------|
|-2----4-(4)---2--|-(2)---2--2------|-2----4-(4)---2--|-------2------|
|-0----2-(2)---2--|-(2)-------------|-0----2-(2)---2--|-------2------|
|----0-------0----|-----0-------0-0-|----0-------0----|-0--------0-0-|


Q E E +E E Q +Q Q Q E E Q E E +E E Q Q Q E Q E
|-----------------|----------------|-----------------|--------------|
|-----------------|----------------|-----------------|--------------|
|-2---------------|------0--1------|-2---------------|---------2--4-|
|-2----4-(4)---2--|-(2)--2--2------|-2----4-(4)---2--|-2--2----2--5-|
|-0----2-(2)---2--|-(2)------------|-0----2-(2)---2--|-2--2----0--5-|
|----0-------0----|------------0-0-|----0-------0----|-0--0-------3-|


+Q Q E Q E +Q Q E E E E Q E E +E E E E Q Q E Q E
|----------------|-----------------|------------------|--------------|
|----------------|-----------------|------------------|--------------|
|-(4)--4----5--3-|-(3)--3--3-3-3---|-5----7-(7)-7-7---|---------2--4-|
|-(5)--5----5--3-|-(3)--3--3-3-3---|-5----7-(7)-7-7---|-2--2----2--5-|
|-(5)--5----3--1-|-(1)--1--1-1-1-2-|-3--0-5-(5)-5-5-0-|-2--2----0--5-|
|-(3)--3---------|-----------------|------------------|-0--0-------3-|


+Q Q E Q E +Q Q E E E E E E E E +E E Q Q Q E Q E
|----------------|-----------------|------------------||---------------|
|----------------|-----------------|------------------||o--------------|
|-(4)--4----5--3-|-(3)--3--3-3-3---|-5-5---7-(7)-7-7--||-------------4-|
|-(5)--5----5--3-|-(3)--3--3-3-3---|-5-5---7-(7)-7-7--||----------2--5-|
|-(5)--5----3--1-|-(1)--1--1-1-1-2-|-3-3-0-5-(5)-5-5--||o-2--2----0--5-|
|-(3)--3---------|-----------------|------------------||--0--0-------3-|


+E E Q E Q E +E E Q E Q E +E E E E E E E E Q Q E Q E
|-----------------|-----------------|-------------------|--------------|
|-----------------|-----------------|-------------------|--------------|
|-(4)-4-4----5--7-|-(7)-7-7----5--2-|-(2)-2-2-2-2-2-2-2-|------------4-|
|-(5)-5-5----5--7-|-(7)-7-7----5--2-|-(2)-2-2-2-2-2-2-2-|---------2--5-|
|-(5)-5-5----3--5-|-(5)-5-5----3--0-|-(0)-0-0-0-0-0-0-0-|-2--2----0--5-|
|-(3)-3-3---------|-----------------|-------------------|-0--0-------3-|


+E E Q E Q E +E E Q E Q E +E E E E E E E E 3x
|-----------------|-----------------|--------------------||
|-----------------|-----------------|-------------------o||
|-(4)-4-4----5--7-|-(7)-7-7----5--2-|-(2)-2-2-2-2-2-2-2--||
|-(5)-5-5----5--7-|-(7)-7-7----5--2-|-(2)-2-2-2-2-2-2-2--||
|-(5)-5-5----3--5-|-(5)-5-5----3--0-|-(0)-0-0-0-0-0-0-0-o||
|-(3)-3-3---------|-----------------|--------------------||


Duration Legend
---------------
W - whole; H - half; Q - quarter; E - 8th; S - 16th; T - 32nd; X - 64th; a - acciaccatura
+ - note tied to previous; . - note dotted; .. - note double dotted
Uncapitalized letters represent notes that are staccato (1/2 duration)
Irregular groupings are notated above the duration line
Duration letters will always appear directly above the note/fret number it represents the
duration for. Duration letters with no fret number below them represent rests. Multi-
bar rests are notated in the form Wxn, where n is the number of bars to rest for. Low
melody durations appear below the staff

Tablature Legend
----------------
h - hammer-on
p - pull-off
b - bend
pb - pre-bend
r - bend release (if no number after the r, then release immediately)
/ - slide into or out of (from/to "nowhere")
s - legato slide
S - shift slide
- natural harmonic
[n] - artificial harmonic
n(n) - tapped harmonic
~ - vibrato
tr - trill
T - tap
TP - trem. picking
PM - palm muting

/ - tremolo bar dip; n = amount to dip

- tremolo bar down
n/ - tremolo bar up
/n - tremolo bar inverted dip
= - hold bend; also acts as connecting device for hammers/pulls
<> - volume swell (louder/softer)
x - on rhythm slash represents muted slash
o - on rhythm slash represents single note slash

Attitude


INTRO: D


****
SOLO: D

E|----------------------------------------------
B|-10---10-----13---13-----10---10-----13---13--
G|-12b¹-12b¹---12b¹-12b¹---12b¹-12b¹---12b¹-12b¹
D|----------------------------------------------
A|----------------------------------------------
E|----------------------------------------------

-13-10-------------------------------------------------------------------------------
-------13-10-------------------------------------------------------------------------
--------------12--10--12HAb%-12-10---------------------------------------------------------------------------------------10p12---------------------------------------10-12b%rv
-----------------------------------------10p12h11-------------10-10-11-11-12-12----------------------------------------------------------10-10-13-13--------------------------
b¹: bend 1 tom
b%: bend 1/2 tom
HA: harmônico artificial
r: depois do bend retorne a corda à posição inicial
v: vibrato
****


Si j'ai pu t'aider, ravi de l'avoir fait icon_cheesygrin

2004-2005 Patacoldemars ®, All Right Reserved ©



>> Plan du Forum Tablatures | suivi de la discussion | Tags : gun, iggy, pop, roseas, des, roses, cemment, partitions, rose



+