cherche partition et tablature de la part des anges ( p lavil)

close
FILTRES DE LA RECHERCHE


3 messages
bonjour, je cherche les partitions et tablatures de l'album la part des anges de philippe lavil, principalement celle de ti case, merci d'avance !!! smiley-guitar


God of Partoch
38448 messages
Modérateur
bonjour et bienvenue sur le forum,pour la partition il te faudra te la procurer
par les voies légales ,sites ,magasins de zique :


 Citation :
Rappel : Ce forum n'est pas une plateforme d'échanges de fichiers protégés. Il est strictement interdit de demander des partitions (pas des tablatures), ou autres fichiers soumis au droit d'auteur, de donner des liens vers des sites en diffusant, ou de donner son email pour que l'on vous envoie de ce type de fichiers. Tout message de ce type entraine l'expulsion immédiate du membre.


pour la tab pas de soucis ...le forum est là pour ça!

voir c'est entendre,c'est toucher,c'est retirer le voile qui sépare l'essentiel de l'apparent (Tahar ben jelloun)....

je joue toujours de la guitare à six schtroumpfs !

3 messages
ok je savais pas ! j'attends donc les tablatures si quelqu'un les a, merci encore !


Star du Forum
Hyper Tabber
Petit Downloader
927 messages
Salut

voilà l'intro :


Ti Case - P. LAVIL

TablEdited by RankXerox


Capo II



|0-------------------------------|--------------------0-----------|
|------------3-------------------|------------0-------------------|
|--------2---------------2-------|--------1---------------1-------|
|----3---------------3-------3---|----2---------------------------|
|2-------------------------------|--------------------------------|
|--------------------------------|0-------------------------------|


|--------------------0-----------|--------------------------------|
|0-------0---1-------------------|3-----------3-----------1---3---|
|--------------------------------|--------5-----------0-----------|
|----2---------------------------|----4---------------------------|
|0-------------------------------|5-------------------------------|
|--------------------------------|--------------------------------|


|0-----------0-------------------|1-----------0-------------------|
|--------1-----------3-----------|--------0-----------3-------0---|
|--------------------------------|----1---------------------------|
|----3---------------------------|0---------------0---------------|
|0-------------------------------|--------------------------------|
|--------------------------------|--------------------------------|


|--------------------0-----------|--------------------------------||
|1-----------1-------------------|--10----------------------------||
|--------4-----------------------|--------------------------------||
|----2---------------------------|--9-----------------------------||
|0-------------------------------|--------------------------------||
|--------------------------------|0-------------------------------||


||--------------------0-----------|--------------------------------|
||------------1-------------------|--------3---3---------------0---|
||--------4-----------------------|--------2---2-----------1-------|
||----2---------------------------|----3---------------2-----------|
||0-------------------------------|2-------------------------------|
||--------------------------------|----------------0---------------|


|--------------------0-----------|--------------------------------|
|------------1-------------------|3-----------3---------------0---|
|--------4-----------------------|--------2---------------1-------|
|----2---------------------------|----3---------------2-----------|
|0-------------------------------|2-------------------------------|
|--------------------------------|----------------0---------------|

| | | |
|--------------------------------|
|1-----------1-------------------|
|2-------2-----------------------|.
|----3---------------------------|..
|--------------------------------|....
|1-------------------------------|.....


RX 2012

sinon la version calameo : http://fr.calameo.com/read/000332609973245a9ed18

RX

Star du Forum
Hyper Tabber
Petit Downloader
927 messages

3 messages
bravo merci, super !


Star du Forum
Hyper Tabber
Petit Downloader
927 messages
avec palsir chanteur

RX

Star du Forum
Hyper Tabber
Petit Downloader
927 messages
plaisir ... c'est mieux ...

RX





>> Plan du Forum Tablatures | suivi de la discussion | Tags : LAVIL, lavil, des, anges, philippe, part, PHILIPPE, cherche, partition

+