Cherche tablature classique

close
FILTRES DE LA RECHERCHE

Bonjour tout le monde !
Je cherche des tablature de classique de niveau moyen (ou moins icon_cheesygrin )
Dans le style requiem de Mozart, marche funèbre de Chopin, Moonlight Sonata de Beethov' ...
Bonne journée sifflote


Artiste motivé
158 messages
E-7-6-7-6-7-2-5-3-0---0-2---2-3-7-6-7-6-7-2-5-3-0---0-2---3-2-0---
B-------------------0-----0-----------------------0-----0---------
G-----------------------------------------------------------------
D-----------------------------------------------------------------
A-----------------------------------------------------------------
E-----------------------------------------------------------------

E-2-3-5-7---8-7-5---7-5-3---5-3-2-3-2-3-2-3-2-3-2-3-2-0-2-3-2-0---
B---------3-------3-------1---------------------------------------
G-----------------------------------------------------------------
D-----------------------------------------------------------------
A-----------------------------------------------------------------
E-----------------------------------------------------------------

=)

La lettre à Elise :)
C'est un des premier morceau que j'ai joué smiley-guitar


Artiste en devenir
703 messages
http://www.classtab.org/

il y a vraiment de tout wink

A merci pour ton site Honnie ! J'ai enfin pu déchiffrer un prélude de villa-lobos avec lequel javait du mal en partition icon_cheesygrin






>> Plan du Forum Tablatures | suivi de la discussion | Tags : cherche, classique, tablature, niveau, moyen, moins, des, monde, bonjour

+