Aide pour lire les tablatures.

close
FILTRES DE LA RECHERCHE


3 messages
Bonjour,
Je n'arrive pas à comprendre ce que signifie ces tablatures . où mettre les doigts,les noms des accords,le rythme ...
e|------------------------3-----------------------|
B|--2---------3------3------2---------------------|
G|----2---------2------2------0-----0---------0---| X2
D|------0---------0------0------------2---------2-|
A|--------3---------3------------3------3--3------|
E|--------3---------3------------3---------3------|

Je l'ai reprise d'une tablature qui était sur ce site.
Que signifie les nombres et es chiffres ?Est-ce plusieurs accords ou un seul ?
Par contre, les tablatures comme ça : j'arrive à les lire.
A,G,D,E,F...
Merci de me répondre.


Artiste en devenir
656 messages
alicecullen
alicecullen a écrit :
Bonjour,
Je n'arrive pas à comprendre ce que signifie ces tablatures . où mettre les doigts,les noms des accords,le rythme ...
e|------------------------3-----------------------|
B|--2---------3------3------2---------------------|
G|----2---------2------2------0-----0---------0---| X2
D|------0---------0------0------------2---------2-|
A|--------3---------3------------3------3--3------|
E|--------3---------3------------3---------3------|

Je l'ai reprise d'une tablature qui était sur ce site.
Que signifie les nombres et es chiffres ?Est-ce plusieurs accords ou un seul ?
Par contre, les tablatures comme ça : j'arrive à les lire.
A,G,D,E,F...
Merci de me répondre.
Bon on commence par le debut tu gratte la corde de si(B) en appuyant sur la case 2 ensuite la corde de sol (G) en case 2 ensuite la corde de ré (D) a vide ensuite la corde de mi grave (E)et la corde de la (A) en meme temp en case 3.Apres je te laisse te debrouiller mais il y a un sujet sur l'explication des tabs sur le site.


Artiste en devenir
2 photos
719 messages
les lettres A B C D E F G
correspondent à La, Si, Do, Ré, Mi, Fa, Sol


Petit causeur
61 messages
Salut , en faite il suffit de jouer chaque corde séparement , en appuyant sur la case indiquée ( 1,2,3 ect..) le 0 tu joues la corde à vide . Quand plusieurs chiffres sont alignés sur la même colone tu joues les cordes en même temps . icon_cheesygrin






>> Plan du Forum Débutants | suivi de la discussion | Tags : ---------, ------, les, ------------, tablatures, accords, lire, arrive, signifie

+