A la recherche de la tablature de Francis Cabrel


nouveau message Répondre
Recherche

#
Bonjour tout le monde, voila je poste sur ce forum car je ne trouve pas la tablature de Francis Cabrel -Petite Marie ( je cherche la tablature car les accords je ne connait pas du tout ) si quelqu'un pourrait faire la tablature sa serait vraiment gentil merci d'avance :).

sugar mountain

God of Partoch
3 photos
8396 messages
#
Merci beaucoup :)

sugar mountain

God of Partoch
3 photos
8396 messages
#
bon courage smile_cool

#

E||-------0--------------0--------|--------2--------------3-----3-|
B||-3-----------3--2-----------2--|--2-----------2--2-------------|
G||-----0-----0--------0-----0----|------2-----2--------2-----2---|
D||---4-----4--------4-----4------|----2-----2--------4-----4-----|
A||-5--------------0--------------|-----------------2-------------|
E||-------------------------------|--2----------------------------|



--------------------------------|--------2-----------------------|
--0-----0-----0--2-----2-----2--|--2-----------2--3-----3-----3--|
------2-----2--------2-----2----|------2-----2--------2-----2----|
----0-----4--------2-----2------|----2-----2--------4-----4------|
--------------------------------|-----------------2--------------|
--3--------------3--------------|--2-----------------------------|



|---0------0------|--2--------------|--0--------------|--2--------|
|---0------2------|--3--------------|--0--------------|--2--------|
|*--0------0------|--4--------------|--0--------------|--3--------|
|*--2------2------|--4--------------|--2--------------|--4--------|
|---2------0------|--2--------------|--2--------------|--4--------|
|---0-------------|-----------------|--0--------------|--2--------|



--2---2-----2----2----|--0--------0--------|--2----------------|
--3---2-----3----3----|--0--------2--------|--3----------------|
--4---4-----4----4----|--0--------0--------|--4----------------|
--4---2-----4----4----|--2--------2--------|--4----------------|
--2---2-----2----2----|--2--------0--------|--2----------------|
------2---------------|--0-----------------|-------------------|



--0----------|--2-------|--2---2-----2----2---|--3--------5------|
--0----------|--2-------|--3---2-----3----3---|--3--------5------|
--0----------|--3-------|--4---4-----4----4---|--4--------6------|
--2----------|--4-------|--4---2-----4----4---|--5--------7------|
--2----------|--4-------|--2---2-----2----2---|--5--------7------|
--0----------|--2-------|------2--------------|--3--------5------|



--2---2-----2---2-----|--3--------5--------|--2----------------|
--3---2-----3---2-----|--3--------5--------|--2----------------|
--4---4-----4---4-----|--4--------6--------|--2----------------|
--4---2-----4---2-----|--5--------7--------|--4----------------|
--2---2-----2---2-----|--5--------7--------|--4----------------|
----------------------|--3--------5--------|--2----------------|



--3--------5--------|--2--------2--------|--2--------0---------||
--3--------5--------|--3--------2--------|--3--------0---------||
--4--------6--------|--4--------3--------|--2--------0--------*||
--5--------7--------|--4--------2--------|--0--------2--------*||
--5--------7--------|--2--------4--------|-----------2---------||
--3--------5--------|-----------2--------|-----------0---------||



--2--------0--------||---2--------2--------|--2--------0--------|
--3--------0--------||---3--------2--------|--3--------0--------|
--2--------0--------||*--4--------3--------|--2--------0--------|
--0--------2--------||*--4--------4--------|--0--------2--------|
-----------2--------||---2--------4--------|-----------2--------|
-----------0--------||------------2--------|-----------0--------|



--3--------2--------|--0-----------------||--3--------2--------|
--0--------3--------|--2-----------------||--0--------3--------|
--0--------2--------|--2----------------*||--0--------2--------|
--0--------0--------|--2----------------*||--0--------0--------|
--2-----------------|--0-----------------||--2-----------------|
--3-----------------|--------------------||--3-----------------|



--5----------------|--2--------2--------|--2--------0-----2-3-2-2-|
--5----------------|--3--------2--------|--3--------0---0---------|
--6----------------|--4--------3--------|--2--------0-------------|
--7----------------|--4--------2--------|--0--------2-------------|
--7----------------|--2--------4--------|-----------2-------------|
--5----------------|-----------2--------|-----------0-------------|



--2-0--0---10--10-10-9-------7-9-|--10--9--7--------------||
---------0----------------10-----|------------7--3--------||
---------------------------------|---------------4--------||
---------------------------------|---------------4--------||
---------------------------------|---------------2--------||
---------------------------------|------------------------||



Je comprend pas tout dans la tablature , comme - faut les jouer en meme temps ?
3
-
-
4
-

sugar mountain

God of Partoch
3 photos
8396 messages
#
oui, faut les jouer en même temps avec les doigts... Tu verras ça fait plus beau smile_cool

#
Ok, merci :)


nouveau message Répondre Recherche


Répondre à cette discussion >>

plan Plan du Forum Tablatures||Tags : tablature, tout, cabrel, francis, forum, trouve, poste, monde, voila