tab killing me softly


nouveau message Répondre
Recherche

#
lu cherche tab des fugees Killing me softly , il y en a une sur partoch mais je la trouve pas geniale ! Donc si vous avez une autre version contactez moi mercii!

#
nn c bon en fait g trouver ce ke je voulais bon pour les debutants essayer de jouer ça c'est super joli !
Part B (Chorus):
Em Am D7 G
E---4----4---4---4----1-----------|----|-3----3--3---3--|
B--------------------------1---4--|-2--|----------------|
G---------------------------------|----|----------------|
Strum-ming my pain with his fin-gers|Sing-ing my life|

G A

E---------------|-----------------1---4----3-|
B--4---------1--|-1----1--1---1--------------|
G-------3-------|----------------------------|
with his words|Kill-ing me soft-ly with his|



D C
G
E-1-----6----6---6---6--|-4----3------|--3-|-1----1---4---1--|
B-----------------------|-----------4-|----|-----------------|
G-----------------------|-------------|----|-----------------|
song, kill-ing me soft-| ly with his |song|Tell-ing my whole|

C Esus4 E

E----|--------------|---------------------|--------|-----|
B-4--|--1---4----2--|-2----2--1-----------|--------|-----|
G----|--------------|------------5---3---3|--3---3-|-5---|
life|with his words|kill-ing me so-oft-ly|with his|song.|

#
nn c bon en fait g trouver ce ke je voulais bon pour les debutants essayer de jouer ça c'est super joli !
Part B (Chorus):
Em Am D7 G
E---4----4---4---4----1-----------|----|-3----3--3---3--|
B--------------------------1---4--|-2--|----------------|
G---------------------------------|----|----------------|
Strum-ming my pain with his fin-gers|Sing-ing my life|

G A

E---------------|-----------------1---4----3-|
B--4---------1--|-1----1--1---1--------------|
G-------3-------|----------------------------|
with his words|Kill-ing me soft-ly with his|



D C
G
E-1-----6----6---6---6--|-4----3------|--3-|-1----1---4---1--|
B-----------------------|-----------4-|----|-----------------|
G-----------------------|-------------|----|-----------------|
song, kill-ing me soft-| ly with his |song|Tell-ing my whole|

C Esus4 E

E----|--------------|---------------------|--------|-----|
B-4--|--1---4----2--|-2----2--1-----------|--------|-----|
G----|--------------|------------5---3---3|--3---3-|-5---|
life|with his words|kill-ing me so-oft-ly|with his|song.|


c'est mieux comme sa non?? wink


nouveau message Répondre Recherche


Répondre à cette discussion >>

plan Plan du Forum Tablatures||Tags : tab, softly, killing, partoch, des, fugees, cherche, trouve, geniale

2019