Tablatures de TRYO


nouveau message Répondre
Recherche

delta01

Petit causeur
1 photo
46 messages
#
Salut tout le monde!
Alors voilà, j'ai cherché un peu partout après des tablatures de Tryo, mais c'est pas facile facile. Le plus simple, c'est de trouver les accords joués en boucle, mais impossible de trouver des tablatures de ce que Manu joue au dessus avec sa guitare jazz!

En priorité, j'aimerai surtout trouver la tab de "Ça y est c'est fait", j'ai su trouver un morceau de l'intro, mais pas tout...

J'ai donc ça pour le moment...

|-------------------------|------------------------------------|
|-------------------------|---------------------------0-2-3-~~-|
|-------------------------|-----------------------0-2----------|
|--2-0--------2-0-------0-|-2-0-------------0-2-4--------------|
|------4-2-0------4-2-0---|-----4-2-0-0-2-4--------------------|
|-------------------------|------------------------------------|

|-------------------------
|-2-0-0---0---------------
|-------2---0-0-~~--------
|-------------------------
|-------------------------
|-------------------------



nouveau message Répondre Recherche


Répondre à cette discussion >>


Autre liens sur le site pour Tryo : Discographie Tryo - Tee Shirt Tryo - Poster Tryo
plan Plan du Forum Tablatures||Tags : trouver, tablatures, TRYO, tryo, des, facile, ---, tout, cherche