Cavatina : Deers Hunter ou voyage au bout de l'enfer ......


nouveau message Répondre
Recherche


#
Je suis à la recherche de la partition tab ou autres .
Merci d'avance !
icon_cheesygrin



#
De quelle style ?

#
Bonjour Las !

Voilà pour "Deer Hunter" : http://www.911tabs.com/link/?1847255


En espérant que ça t'aille...


Bonne fin d'après-midi !

#
Vous pourriez me dire comment vous trouver la tab de green day que j'ai faites?la chanson c'Est blvd. of broken dreams

#
tiens pour blvd of broken dreams:



Boulevard of Broken Dreams
Music: Green Day
Album: American Idiot (2004)
Tab By: ticouneds1(on_off104@hotmail.com)

Standard Tuning (E A D G B E)

Riff 1:
e|-----------------------|
B|--8-9---9/13-11---8-9--|
G|-----------------------|
D|-----------------------|
A|-----------------------|
E|-----------------------|

Riff 2: x3
e|------------------------------|
B|-------8-9---9/13-11---8-9--9-|
G|-10-10------------------------|
D|------------------------------|
A|------------------------------|
E|------------------------------|

e|---------------------------------------|
B|--------8-9--9/13-11-13-13-13-13-13-13-|
G|-10-10---------------------------------|
D|---------------------------------------|
A|---------------------------------------|
E|---------------------------------------|

e|---------------------------------------|
B|-13-13-13-13-13-13-13------------------|
G|---------------------------------------|
D|---------------------------------------|
A|---------------------------------------|
E|---------------------------------------|

Verse:
F G# D# A#
e|--1----4----6----6---|
B|--1----4----8----6---|
G|--2----5----8----7---|
D|--3----6----8----8---|
A|--3----6----6----8---|
E|--1----4---------6---|

Chorus:
C#5 G#5 D#5 F5 x3 C#5 G#5 F5
e|---------------------------------------|
B|---------------------------------------|
G|--6---------8------------6---------10--|
D|--6----6----8----3-------6----6----10--|
A|--4----6----6----3-------4----6----8---|
E|-------4---------1------------4--------|

Outro:
x3
e|--------------------------------------|
B|--------------------------------------|
G|--------------------------------------|
D|--------------------------------------|
A|-------4-4-4-6-6-6-5-5-5--------------|
E|-1-1-1-------------------4-4-4-0-0-0--|

e|--------------------------------------|
B|--------------------------------------|
G|--------------------------------------|
D|--------------------------6-6-2-2-----|
A|-------4-4-4-6-6-6-5-5-5--6-6-2-2-----|
E|-1-1-1--------------------4-4-0-0-----|


Order:

Verse (2x alone, 1x w/Riff 1)
Verse (2x alone, 2x w/Riff 1)
Chorus
Verse (4x alone, 1x w/Riff 1)
Verse (2x alone, 2x w/Riff 1)
Chorus
Verse x2
Chorus (w/Riff 2)
Verse x2
Chorus (w/end of Riff 2 after 2nd repeat)
Outro

Lyrics:


I walk a lonely road
The only one I that have ever known
Don't know were it goes
But its home and I walk alone

I walk this empty street
On the boulevard of broken dreams
Where the city sleeps
And I'm the only one and I walk alone
I walk alone I walk alone
I walk alone I walk a-

My shadows the only one that walks beside me
My shallow hearts the only thing that's beating
Sometimes I wish someone out there will find me
Till then I'll walk alone

I'm walking down the line
That divides me somewhere in my mind
On the border line of the edge
And were I walk alone

Read between the lines of what's
Fucked up and every things all right
Check my vital signs to know I'm still alive
And I walk alone
I walk alone I walk alone
I walk alone I walk a-

My shadows the only one that walks beside me
My shallow hearts the only thing that's beating
Sometimes I wish someone out there will find me
Till then I'll walk alone

I walk this empty street
On the boulevard of broken dreams
Where the city sleeps
And I'm the only one and I walk a-

My shadows the only one that walks beside me
My shallow hearts the only thing that's beating
Sometimes I wish someone out there will find me
Till then I'll walk alone

#
c'est un peu croche dzl... smyleybleu

#
ben c'est dèja mieux que rien quand à moi merci j'trouve que c'est pas mal wink


#
babouchelesinge a écrit :
Bonjour Las !

Voilà pour "Deer Hunter" : http://www.911tabs.com/link/?1847255


En espérant que ça t'aille...


Bonne fin d'après-midi !

Salut Babou's
Merci , au poil ! maitre
Je pense que je n'aurai pas trop de maille à partir avec cette partoch !
taille et maille pour un poisson et l'affaire est dans le filet !
icon_cheesygrin


nouveau message Répondre Recherche


Répondre à cette discussion >>

plan Plan du Forum Tablatures||Tags : cavatina, bout, voyage, hunter, deers, enfer, recherche, avance, merci