Smells Like Teen Spirit > tablature incorrect ?


nouveau message Répondre
Recherche

#
Bonsoir à vous :)

Alors voila, je me posais la question en jouant à la play xD
L'intro de la chanson Smells Like Teen Spirit de Nirvana sur Guitar Hero 5 est différente de celle des partitions qu'on m'a donné. C'est peut-être une réadaptation pour le jeu... mais je préfère demander !

>>> JE PARLE DE LA PARTIE EN CLEAN !! Les premières notes du morceau quoi.

Voici l'intro que l'on trouve partout et qui selon moi ressemble le plus à l'originale jusqu'à aujourd'hui :



----#-------#-------#-------#-------#-------#-------#-------#-------#----
e-----------------------------------------------------------------------]
h-----------------------------------------------------------------------]
g---------------x-x-x-x-3---3---0---------------x-x-x-x-6---6---0-------]
D---3-----3-3---x-x-x-x-3---3---0---6-----6-6---x-x-x-x-6---6---0---3---]
A---3-----3-3---x-x-x-x-1---1---0---6-----6-6---x-x-x-x-4---4---0---3---]
E---1-----1-1---x-x-x-x-------------4-----4-4---x-x-x-x-------------1---]
... etc


C'est en fait ce qu'on joue avec disto ensuite... mais sans disto.
Et voici celui du jeu :



----#-------#-------#-------#-------#-------#-------#-------#-------#----
e-----------------------------------------------------------------------]
h-----------------------------------------------------------------------]
g-----------------x-x-x-3---3-3-0-0-------------x-x-x-x-6---6-6-x-0-----]
D---3-----3-3-----x-x-x-3---3-3-0-0-6-----6-6---x-x-x-x-6---6-6-x-0-3---]
A---3-----3-3-----x-x-x-1---1-1-0-0-6-----6-6---x-x-x-x-4---4-4-x-0-3---]
E---1-----1-1-----x-x-x-------------4-----4-4---x-x-x-x---------x---1---]
... etc


Je sais que c'est un détails en soi... mais je voulais m'en assurer quand même.

Alors ? Laquelle est-ce la vraie ?

PS : Personnellement, je préfère jouer celle du jeu. Les 5 derniers accords rentre plutôt bien à l'oreille wink
Essayez pour voir icon_cheesygrin

Merci d'avance pour vos réponses ! smile

#
La deuixème est plus proche de l'original, mais c'est un détail.

La première est un tout petit peu simplifié.


nouveau message Répondre Recherche


Répondre à cette discussion >>


Autre liens sur le site pour Nirvana : Discographie Nirvana - Tee Shirt Nirvana - Poster Nirvana
plan Plan du Forum Tablatures||Tags : ---, -x-, -----, ---x-x-x-x-, jeu, a---, d---, e---, ---------------x-x-x-x-