Hell's Bells


nouveau message Répondre
Recherche

blanc33

1 message
#
Quelqu'u pourrait me filler une tablature pas mal de " Hell's Bells " d'ACDC ??? S'il vous plait
Merci d'avance

pierrenzo

Petit causeur
14 messages
#
Slt, je pense que c'est bon, je l'ai pas essauer mais je pense que c'est ça...

||--------------------|---------------------|
||o-------------------|---------------------|
||----9---7-(7)-----5-|-(5)-----7-(7)-------|
||--------------7-----|-----5---------7-----|
||o-0---0---------0---|-------0---------0-0-|
||--------------------|---------------------|


+E E E E +E E E E +E E E E +E E E E 5x
|---------------------|-----------------------||
|---------------------|----------------------o||
|-----9---7-(7)-----5-|-(5)-----7-(7)---------||
|---------------7-----|-----5---------5-5-----||
|-(0)---0---------0---|-------0-------3-2-0--o||
|---------------------|-----------------------||


+E E E E +E E E E +E E E E +E E E E
|---------------------|---------------------|
|---------------------|---------------------|
|-----9---7-(7)-----5-|-(5)-----7-(7)-------|
|---------------7-----|-----5---------7-----|
|-(0)---0---------0---|-------0---------0-0-|
|---------------------|---------------------|


+E E E E +E E E E +E E E E +E E E E
|-------------------3-|-(3)-3-3-2-(2)-------|
|-----5-------------3-|-(3)-3-3-3-(3)-------|
|---------7-(7)-----0-|-(0)-0-0-2-(2)-------|
|-------7-------7---0-|-(0)-0-0-0-(0)-5-5---|
|-(0)-------------0-2-|-(2)-2-2-0-(0)-3-2-0-|
|-------------------3-|-(3)-3-3-------------|


~~~
E E E E E E E E +Q. E Q Q E E E E E E E E +Q. E Q Q
|-----------------|---------------|-----------------|---------------|
|-----------------|---------3--3--|-----------------|---------3--3--|
|---9-7-9---7-5-7-|-(7)-----0--0--|---9-7-9---7-5-7-|-(7)-----0--0--|
|---7-7-7---5-5-7-|-(7)-----------|---7-7-7---5-5-7-|-(7)-----------|
|---------------0-|-(0)---0-3--2--|-0---------------|-------0-3--2--|
|-----------------|---------------|-----------------|---------------|


E E E E E E E E Q E E Q Q E E E E E E E E
|-----------------|--------------|-----------------|
|-----------------|--------3--3--|-----------------|
|---9-7-9---7-5-7-|--------0--0--|---9-7-9---7-5-7-|
|---7-7-7---5-5-7-|--------------|---7-7-7---5-5-7-|
|-0---------------|------0-3--2--|-0---------------|
|-----------------|--------------|-----------------|


nouveau message Répondre Recherche


Répondre à cette discussion >>


Autre liens sur le site pour Acdc : Discographie Acdc - Tee Shirt Acdc - Poster Acdc
plan Plan du Forum Tablatures||Tags : ACDC, acdc, hell, bells, pourrait, quelqu, filler, tablature, avance