Tablature The Connels 74 75


nouveau message Répondre
Recherche

#
Bonjour, je débute à la guitare et je suis à la recherche de la tablature d'un passage de guitare électrique solo qui dure environ 30 secondes après le refrain de la chanson 74 75 de The Connels; Merci.

#
Tiens je l'ai trouvé sur internet parce que la tablature ne veut pas se mettre à la bonne forme:
http://www.guitaretab.com/c/connells/3909.html
EDIT: c'est bon

E -|--------------3/5-3---------0---/3-------------------------------|
B 3/5-3---3/5-3-----------5---------|----0-------3-------------------|
G -|----5-------5-------------------|--------5-------4---5-4/5-5---|
D -|--------------------------------|--------------------------------|
A -|--------------------------------|--------------------------------|
E -|--------------------------------|--------------------------------|


E |--------------------------------|--------------------------------|
B |--------------------------------|-------------------------------3/
G |0---------0h2h4/5-----4-----2-0-h2-------------------------------|
D |--------------------------------|--------------------------------|
A |--------------------------------|--------------------------------|
E |--------------------------------|--------------------------------|


E |--------------3/5-3------------3/5-3---3/5-3---------------------|
B /5-3---3/5-3-----------5-----5---|----5-------5---------5/6---5---|
G |----5-------5-------------------|----------------5---------------|
D |--------------------------------|--------------------------------|
A |--------------------------------|--------------------------------|
E |--------------------------------|--------------------------------|


E |--------------------------------|
B |--------------------------------|
G |------------------------5---4---|
D |--------------------------------|
A |--------------------------------|
E |--------------------------------|


#
Merci. Je vais m'y mettre.


nouveau message Répondre Recherche


Répondre à cette discussion >>


Autre liens sur le site pour The Connells : Discographie The Connells - Tee Shirt The Connells - Poster The Connells
plan Plan du Forum Tablatures||Tags : connels, guitare, tablature, passage, recherche, CONNELLS, bonjour, debute, electrique