Lecture d'une tablature problématique

close
FILTRES DE LA RECHERCHE

Bonjour,
voici le début d'une tablature de Badly Drawn Boy (A minor Incident, chanson sur la BO du film About A Boy) et je ne sais pas vraiment comment m'y prendre. D'habitude je comprend le principe des tablatures mais je suis hermétique à celle la! Deja pour commencer c'est quoi ce "h"? Et quand toutes les notes sont alignées c'est qu'ils faut les jouer simultanément?
J'aimerai vraiment savoir jouer ce morceau.... si quelqu'un a une reponse, vous gener pas!
Merci icon_cheesygrin


Am C G
E--3-----0-0----0-----0------0-0---------------3-3-3-3-3-3-3-3----3-3-3-3-3-3-3-3--|
B--3h0---1-1----1-----1------1-1------1-1-1----3-3-3-0-3-0-3-0----3-3-3-0-3-0-3-0--|
G--0-----2-2----0-2h0-0------0-0------0-0-0----0-0-0-0-0-0-0-0----0-0-0-0-0-0-0-0--|
D--------2-2-0h2------2h0----2-2-2h0-----------0-0-0-0-0-0-0-0----0-0-0-0-0-0-0-0--|
A------0-0-0---------------3-3-3-----3-2-0-----2-2-2--------------2-2-2------------|
E--------------------------------------------3-3-3-3------------3-3-3-3------------|

G
E----3-3-----3------------3-3-3-3-|
B----3-3-----3-------3----3-3-3-3-|
G----0-0-----0-------0----0-0-0-0-|
D----0-0-----0-2h0--------0-0-0-0-|
A----2-2-0h2-------2------2-2-2-2-|
E--3-3-3----------------3-3-3-3-3-|


Môdieu môdieu môdieu, je peut pas t'aider, j'sais même pas si c'est jouable hum

l'elfe

God of Partoch
Tabber motivé
7 photos
8772 messages
bon alors la ta tablature est toute décalée.... mais sinon effectivement quand toutes les notes sont alignées tu dois les jouer "simultanément", c'est a dire dans un seul mouvement de frottage des cordes
quand au "h" ça doit etre un hammer. C'est a dire que du joue ta corde en appuyant sur la frette indiquéed, et ensuite, tu produit la note suivante sans regratter ta corde.
j'espre que ces quelques explications t'auront eclairé

"Il faut user de tout avec modération, surtout de la modération."
Richard Bates
Mouais je sais que c'est decalé, mais c'est que je suis pas une pro des ordis non plus....
Merci pour l'explication du petit h, je sais pas si j'ai vraiment compris mais des que j'ai ma guitare dans les mains je tente!
ET donc quand toutes les notes sont alignées c'est tout betement un accord, c'est ca?

babouchelesinge

God of Partoch
Tabber motivé
5478 messages
Bonjour !

Oui,c'est ça ,ce sont des accords,là tu as un sol (320003 ou 320033),un la mineur (x02210) et un do (x32010).




>> Plan du Forum Débutants | suivi de la discussion | Tags : ----, -----, ------, -------, boy, ---------------, vraiment, ------------, jouer



+