Exemples sonores de Thomann

close
FILTRES DE LA RECHERCHE


God of Partoch
7569 messages
Salut alors voilà je viens demander ici le nom du morceau joué sur thomann pour les exemples de funk car j'ai complètement oublié le nom.

EDIT: Ici sont posté les exemples sonores funk et rock


Artiste motivé
151 messages
Tu peux mettre un lien?
Parce que là,je vois pas! icon_redface


God of Partoch
7569 messages

Pilier de Forum
1426 messages
moi aussi jle cherche

J'ai pas le nom , mais je peut proposer une tabs à l'oreille :
( c'est ce que vous vouliez au final ? )

e--------------------------------------------------------------
B--------------------------------------------------------------
G--------------------------------------------------------------
D--------------5(b)----------------5(b)-------------------5(b)---
A-5/7-7---5-7----7--7-5/7 7---5-7-----7--7--5/7-7-- 5-7--------
E-------5-------------------5---------------------5------------

--------------5-4-3-2------x-10-x-10-10-9-8-7---------------
--------------5-4-3-2------x-10-x-10-10-9-8-7---------------
--------------5-4-3-2------x-10-x-10-10-9-8-7---------------
------------------------------------------------------------
-7-7-5/7----------------------------------------------------
-----------0--------------------------------------------------

La suite plus tard...


God of Partoch
7569 messages
en effet c'est se que je voulait.


God of Partoch
4 photos
8562 messages
Bon je vais essayer de faire les morceaux rock et blues à l'oreil ... Pas gagné.


God of Partoch
7569 messages
london calling
london calling a écrit :
Bon je vais essayer de faire les morceaux rock et blues à l'oreil ... Pas gagné.



Si tu y arrives j'édite le topic pour que les gens savent que c'est les exemples sonores de thotho


God of Partoch
4 photos
8562 messages
Si je pense avoir trouvé il faut que quelqu'un vérifi car moi et mon oreil ...

london calling
london calling a écrit :
Bon je vais essayer de faire les morceaux rock et blues à l'oreil ... Pas gagné.



Il me semble :

Rock :

e----------------------------------------------------------
B----------------------------------------------------------
G-2---x-2-2-0-2--x-x-5/4-x-5-4--x-2-2-0-2--x-x-----x-------
D-2---x-2-2-0-2--x-x-5/4-x-5-4--x-2-2-0-2--x-x-4-4-x-5-5---
A-0---x-0-0-0-0--x-x-3-2-x-3-4--x-2-2-0-2--x-x-4-4-x-5-5---
E-------------------------------------------------------x-x-2-2-x-3-3---

e----------------------------------------------------------
B----------------------------------------------------------
G--x-2-2-0-2--x-x-5/4-x-5-4---x-2-2-0-2--x-x---------------
D--x-2-2-0-2--x-x-5/4-x-5-4---x-2-2-0-2--x-x-5-4-2---------
A--x-0-0-0-0--x-x-3/2-x-3-2---x-2-2-0-2--x-x-5-4-2---------
E-----------------------------------------------------x-x-3-2-0-12>>>

e-------3-2---------------------------3-2--7-----------------
B-------3-3---------------------------3-3--10(b)7-7----------
G-x-x-2-2-2--x---------7-7--------2-2-2---------9(b)7------
D-x-x-2-0-0--x-----7-9-----9-7/---2-0-0----------------9----
A-x-x-0-0-0--x-7/9----------------0-0-0---------------------0
E-x-x---------x---------------------------------------------------0

Voila wink

Edit : désolé pour les écarts !


God of Partoch
4 photos
8562 messages
Je savais que c'était des powerchords, je vais essayé de trouver et je regarderais après pour vérifier.

Sinon tu ne peux pas tous les faire icon_cheesygrin ?


Pilier de Forum
1417 messages
petit déterrage de topic ... tout petit !
zerosiris (qui semble avoir une bonne oreille) tu ne connaitrais pas la tablature du morceau blues ???

Moi la tablature du morceau metal m'interesse aussi bump
(quoi ? Je suis le seul ? Tanp pis violent2 )
Merci d'avance icon_redface .

Bonjours les jeunes !

Pour répondre aux questions sur l'exemple funk le premier riff est un "remake" de Satisfaction de Steevie Wonder, le second c'est Rollercoaster Of Love de Ohio Players.

Voila c'est tout, bonne journée !


God of Partoch
7569 messages
tu voulais pas dire superstition plutôt de Stevie Wonder??






>> Plan du Forum Tablatures | suivi de la discussion | Tags : exemples, les, nom, ici, funk, sonores, thomann, demander, viens

+