Sweep picking

close
FILTRES DE LA RECHERCHE


Artiste motivé
175 messages
Salut à tous! je recherche une tablature assez simple qui nécessite du sweep picking.
J'aimerai apprendre à en faire, c'est pourquoi si vous avez également des tuto's dessus sa serai pas mal je m'en envoyé.

Merci !


God of Partoch
39 photos
15289 messages
salut , http://www.youtube.com/watch?gl=FR&hl=fr&v=hehNtZSVnRQ&feature=related c'est ça que tu veux faire ( sweep plus a la fin du clip) difficile et difficile c'est le prenom !!

t
tLAG.::exempler.;LEL colector

Artiste motivé
175 messages
Oui voila maitre mais pour commencer en plus simple icon_cheesygrin icon_cheesygrin

Voilà un extrait du DVD pédagogique de Michel Sigwalt "Tapping et Sweeping" que je te conseille, très bien fait.
http://www.youtube.com/watch?v=o332Xl0TsoE

disponible chez Oscar Music à Paris
http://www.oscarmusic.com/VIDEO/video_fiche.asp?Cliprov=OMGQMHOTLKEXLWCJAJ22:10:...

Un type que je ne connais pas mais qui touche, c'est évident
http://www.youtube.com/watch?v=AfhHLj2LW44&feature=related


Artiste motivé
175 messages
Merci bien !

N'oublie pas une chose que le sweeping est une technique virtuose qui va te demander beaucoup d'entrainement. Sois patient. smile


Artiste motivé
175 messages
Oui :p smiley-guitar maitre maitre maitre maitre maitre


Artiste motivé
162 messages
Tu devrais commencer par du sweeping sur 3 cordes, ce qui est le plus facile des types de sweeping.
Voila les plans de base que tu peux transposer dans toutes les gammes en les déplaçant sur le manche:

Arpège de Do Majeur
-------12-15H12--------
----13----------13-----
-12----------------12--
-----------------------
-----------------------
-----------------------

C'est un arpège de Do majeur car c'est une partie d'un accord de DoM

Arpège de Do Majeur complet (à ne pas essayer avant d'être prêt pour du sweeping sur 5 cordes!)
---------------12-15H12-------------
------------13----------13----------
---------12----------------12-------
------14----------------------14----
---15----------------------------15-
------------------------------------



Arpège de La mineur
-------12-17H12--------
----13----------13-----
-14----------------14--
-----------------------
-----------------------
-----------------------

C'est un arpège de La Mineur car c'est une partie d'un accord de Lam

Arpège de La Mineur complet (Encore plus complexe que le précédent car il inclut des barrés et des hammers-on, il faut aussi avoir quelques bases en sweeping pour s'attaquer à celui-ci!)
--------------------12-17H12----------------
-----------------13----------13-------------
--------------14----------------14----------
----------14-----------------------14-------
---12H15------------------------------15H12-
--------------------------------------------


Il faut commecer par travailler lentement pour pouvoir bien entendre chaque note, et avoir le mouvement complexe de la main droite naturellement.


Artiste motivé
175 messages
A génial pile ce qu'il me faut ! Merci bien ! je m'entraine dés maintenant dans se cas smile






>> Plan du Forum Tablatures | suivi de la discussion | Tags : sweep, picking, cessite, aimerai, apprendre, simple, assez, recherche, tablature

+