demande de tablature


nouveau message Répondre
Recherche

#
salut à tous !!!
voilà je cherche la tablature de l'honneur d'un peuple de diam's issue de son nouvel album SOS. si quelqu'un pouvait m'aider ça serait vraiment sympa. De plus je suis encore débutant pour la trouver à l'oreille wink

#
Salut!

bon,j'ai écouté et les accords donnent a peu prés ça:

e--------------------------
b--2------5------3------2--
g--2------4------2------2--
d--2------6------4------2--
a--0------0------0------0--
e--------------------------

C'est juste les accord du début,aprés le guitariste fait des variantes.
Il te faut les jouer en arpège,un peu comme cela:

e---------------------------------------
b--2------2----5------5----3----5---2----
g-----2------------4---------------------
d---------------------------------------
a--0------------0------------0--------0----
e---------------------------------------

C'est simplifié,mais ça donne une idée.

En espérant que ça t'aidera wink

#
merci pour la réponse wobble

#
Cela dépent de ta guitare.Tu en une électrique, une accoustique, une classique ?

#
désolé pour le smiley pas tres agréable je me suis trompé wink

#
Pas de problème,tu as éssayé alors?

#
alors oui j ai essayé sur le premier accord sa va mais a partir du 2 eme je coince icon_redface

#
jblectrik78 a écrit :
Cela dépent de ta guitare.Tu en une électrique, une accoustique, une classique ?


ça dépend pas du tout de sa guitare.

pour jouer de la guitare il faut 5 doigts six cordes et un trou du cul -keith richards-
membre du:
Fender user's club
Ibanez user's club
digitech user's club
Zoom user's club
epiphone user's club
boss user's club.
#
Bonjours ! wink
Est-ce que quelq'un aurait les tablatures de Diam's Coeur de bombe !? clef-treble
Merci ! icon_cheesygrin

#
Je pense que les accords donnent à peu prés ça:



e ------------------------------------
b ------------------------------------
g ---7------------------------5---------
d ---7-----8---------3-------5------------
a ---5-----8---------3-------3-----------
e ----------6--------1------------------

il faut les jouer en arpège.

#
alors moi je pense que c'est Rém Sib Fa Do
donnez moi votre avis :)


nouveau message Répondre Recherche


Répondre à cette discussion >>


Autre liens sur le site pour Diam S : Discographie Diam S - Tee Shirt Diam S - Poster Diam S
plan Plan du Forum Fans||Tags : tablature, issue, nouvel, diam, album, peuple, DIAMS, demande, voila