Cherche la tablature d'un morceau flamenco de metallica

close
FILTRES DE LA RECHERCHE


Petit causeur
26 messages
Bonjour, comme l'indique le titre, je cherche la tablature d'un morceau de flamenco que Robert Trujillo de Metallica a joué dans une video, en guitar pro si c'est possible
Vous pouvez la voir ici :
http://www.youtube.com/watch?v=K6kiVhWEgUY
http://www.dailymotion.com/video/x6cpyv_metallica-flamenco_music

Merci


Membre Banni
Star du Forum
885 messages
comment elle s'appelle ta tablature ?


Petit causeur
26 messages
Lu, merci pour la reponse et désolé pour le retard, enfaite elle n'a pas de nom, mais jl'ai trouvée, pas en gpro, jl'ai essayée plusieurs fois et elle n'est pas tres exacte et precise, mais c'est la seule que j'ai


e |------------------------------------------------------------------------------------------|
b |------------------------------------------------------------------------------------------|
g |------------------------------------------------------------------------------------------| 2x
d |--------------2--------------------2--------------------2--------------2------------------|
a |--------------2--------------------2--------------------2--------2-3-5---5-3--2h-3p-2p-0--|
E |--2h-3p-2p-0--0--0-0---2h-3p-2p-0--0--0-0---2h-3p-2p-0--0--0-0----------------------------|
|---| |---| |---|
pm pm pm

e |------------------------------------------------------------------|
b |------------------------------------------------------------------|
g |------------------------------------------------------------------|
d |-----------------------------------------------------4-5-4--------|
a |-----------------------------------5--5-5-5---8------4-5-4--------|
E |--5--5-5-5---6--6-6-6---9--9-9-9---------------------2-3-2--------|

|----------------------------------------| |-----|
PM pm






>> Plan du Forum Tablatures | suivi de la discussion | Tags : metallica, METALLICA, www, flamenco, morceau, cherche, tablature, video, trujillo

+