Recherche de tab guitare : First Lady de Julien Doré

close
FILTRES DE LA RECHERCHE

cactusjunction

4 messages
Bien le bonjour !
Une soudaine envie me vient tout à coup : jouer "First Lady" de Julien Doré à la guitare.
Je trouve ce riff ma foi fort sympathique et je me dit que ça serait super de la jouer.
C'est pourquoi je fais appel à votre aide, car, après avoir écumé tout les sites de tablatures possibles, rien.

Je ne suis qu'un débutant, donc pas encore très expérimenté, et donc incapable de reconnaitre à l'oreille comment la jouer. Ce serait super si un de vous pourrait me faire une tablature à l'oreille...

Voici de quoi écouter la chanson : http://www.youtube.com/watch?v=37eMpGFbrMs
Merci d'avance ! chanteur

hupo15

Sous Dieu du Forum
4336 messages
Le riff c'est ça
e---------------------------|
B---------------------------|
G---------------------------|
D---------------------------|
A-------------4----3-----2--|
E---0----4------------------|

Tu le fais plusieurs fois et après c'est ça:
e---------------------------|
B---------------------------|
G---------------------------|
D-------------4----3-----2--|
A---0----4------------------|
E---------------------------|
J'ai plus le nombre de fois exact en tête mais c'est ça. Pour le reste désolé mais je ne sais pas.

cactusjunction

4 messages
Merci beaucoup ! ^^ Je vais essayer ça.




>> Plan du Forum Tablatures | suivi de la discussion | Tags : julien, jouer, JULIEN, oreille, donc, serait, super, tout, lady



+