aide pour le son de apache des shadows


nouveau message Répondre
Recherche

fedr

Petit causeur
2 photos
43 messages
#
salut à tous , je suis en train d'apprendre à jouer apache des shadows mais je n'arrive pas à faire sonner cette partie ci-dessous sur les cordes ré et la se rapprochant de l'original , merci à ceux qui pourront m'aiguiller et bonne gratte à tous.
smiley-guitar -------------------|------------------|----------------------------|
--2----------------|------------------|-----3-3-3--3-----3-3-3--3--|
-------------------|------------------|--3------------3------------|
-------------------|------------------|----------------------------|


Am
------------------------------|--------------------|------------------|
------------------------------|--------------------|------------------|
------------------------------|--------------------|------------------|
-----3-3-3--3-----3-3-3-3-3-3-|--2-----------------|------------------|
--3------------3--------------|-----------0--------|------------------|
------------------------------|--------------------|------------------|


F Am
----------------------------|------------------------------|-------------------|
----------------------------|------------------------------|-------------------|
----------------------------|------------------------------|-------------------|
-----3-3-3--3-----3-3-3--3--|-----3-3-3--3-----3-3-3-3-3-3-|--2----------------|
--3------------3------------|--3------------3--------------|-------------------|
----------------------------|------------------------------|-------------------|

hupo15

God of Partoch
4336 messages
#
fedr
fedr a écrit :
-------------------|------------------|----------------------------|
--2----------------|------------------|-----3-3-3--3-----3-3-3--3--|
-------------------|------------------|--3------------3------------|
-------------------|------------------|----------------------------|


Am
------------------------------|--------------------|------------------|
------------------------------|--------------------|------------------|
------------------------------|--------------------|------------------|
-----3-3-3--3-----3-3-3-3-3-3-|--2-----------------|------------------|
--3------------3--------------|-----------0--------|------------------|
------------------------------|--------------------|------------------|


F Am
----------------------------|------------------------------|-------------------|
----------------------------|------------------------------|-------------------|
----------------------------|------------------------------|-------------------|
-----3-3-3--3-----3-3-3--3--|-----3-3-3--3-----3-3-3-3-3-3-|--2----------------|
--3------------3------------|--3------------3--------------|-------------------|
----------------------------|------------------------------|-------------------|
C'est plus jolie comme ça razz
Tu n'arrives pas a le faire sonner parce que tu n'arrives pas a le jouer ou parce que tu trouves pas les bon réglages sur l'ampli?
Si c'est ça précise le modèle de ton ampli wink

jeguil

God of Partoch
9 photos
12941 messages
#
Il faut jouer ça en son clair, sans disto avec un très léger effet de réverbe et faire un palm-mute mais pas trop appuyé, juste pour "arrondir" les notes. wink
Il faut aussi avoir un vibrato !

Ce n'est pas en sciant que Léonard devint scie...
http://ptitelandaise.blogspot.com/
fedr

Petit causeur
2 photos
43 messages
#
merci pour vos réponses , effectivement je ne dispose pas de vibrato sur ma LAG RM100 , pour mon ampli c'est un peavey vypyr 30w , par contre mon fils a une ibanez avec vibrato je vais voir si ça passe mieux. smiley-guitar


nouveau message Répondre Recherche


Répondre à cette discussion >>

plan Plan du Forum Débutants||Tags : -----, ------------, shadows, des, apache, ci-dessous, les, partie, rapprochant