Besoin d'aide solfege


nouveau message Répondre
Recherche

#
Bonjour,


LA majeur
------------------------------4-5-7-----------------------
-------------------------5-7------------------------------
-------------------4-6-7----------------------------------
-------------4-6-7----------------------------------------
-------4-5-7----------------------------------------------
-4 -5-7----------------------------------------------------


-------------------------------7-9-10---------------------
------------------------7-9-10----------------------------
------------------6-7-9-----------------------------------
------------6-7-9-----------------------------------------
--------7-9-----------------------------------------------
-7-9-10 ---------------------------------------------------



--------------------------------------9-10-12-------------
------------------------------9-10-12---------------------
-------------------------9-11-----------------------------
-----------------9-11-12----------------------------------
---------9-11-12------------------------------------------
-9-10-12--------------------------------------------------


-------------------------------------------12-14----------
----------------------------------12-14-15----------------
-------------------------11-13-14-------------------------
----------------11-12-14----------------------------------
-------11-12-14-------------------------------------------
-12-14----------------------------------------------------



-------------------------------------------14-16-17-------
----------------------------------14-15-17----------------
-------------------------13-14-16-------------------------
-------------------14-16----------------------------------
----------14-16-17----------------------------------------
-14-16-17-------------------------------------------------

Ma question wink :Tout ceci c'est que la gamme du La Majeur prolongée sur tout le manche en fait??
icon_redface

denis-px

Petit causeur
Jeune tabber
1 photo
Membre VIP
66 messages
Modérateur
#
oui selon les differents hauteurs du manche ou tu te trouve
tu peux aussi combiner les differentes methodes

la musique c'est comme l'amour seul c'est bien à plusieurs c'est mieux !
#
Ok ouai dans ce cas tu comprend la méthode et tu peux toutes les faire les gammes majeures, pas besoin d'apprendre .

denis-px

Petit causeur
Jeune tabber
1 photo
Membre VIP
66 messages
Modérateur
#
d'autant plus qu'en guitare tu n'es pas obligé de connaitre la methode pour former les gammes (bien que ce soit pas idiot de la comprendre) mais tu peu te contenter de faire un shema et de le deplacer sur ta fondamentale.

la musique c'est comme l'amour seul c'est bien à plusieurs c'est mieux !
#
Oui mais genre le code pour les majeur: "Fond+Ton+ton+1/2 ton+ton+ton+ton+1/2ton " sa tu dois le connaitre après tu peu te débrouiller ? enfin a mon avis c'est le seul truc a vraiment apprendre pour les gammes : les codes.

denis-px

Petit causeur
Jeune tabber
1 photo
Membre VIP
66 messages
Modérateur
#
je suis bien d'accord
mais si tu connais aussi tes shémas dans tous les sens pask y en a d'autres que ça tu a juste à les décaler
ce qui n'empeche pas de connaitre aussi les positions des intervalles...seconde tierce (majeure et mineure) quarte quinte septième etc.ça permet de mieux shematiser et de mieux gerer ses doigts

la musique c'est comme l'amour seul c'est bien à plusieurs c'est mieux !
#
Ok merci pour l'information . Je suis un peu feignasse a vrai dire y aurait il un site avec ses schéma, sinon je les fait , mais histoire de vérifier aussi =) .

jeguil

Artiste participatif
9 photos
105 messages
#
Tu peux chercher aussi un peu, sur le net y a tout ce qu'il faut ! icon_cheesygrin
Je t'en mets un quand-même :
http://www.chordbook.com/guitarscales.php
Tu as toutes les gammes ! chanteur

Ce n'est pas en sciant que Léonard devint scie...
http://ptitelandaise.blogspot.com/
denis-px

Petit causeur
Jeune tabber
1 photo
Membre VIP
66 messages
Modérateur
#
jokoko301 a écrit :
Ok merci pour l'information . Je suis un peu feignasse a vrai dire y aurait il un site avec ses schéma, sinon je les fait , mais histoire de vérifier aussi =) .

l'avantage de se creuser un peu le ciboulot soi même c'est que quand on a réellement compris queque chose on peut s'en servir inteligemment
quand on applique des formules sansles compendre comme un perroqut on se retrouve aussi limité que le volatile en question quand on voudrais passer à quelqechose e plus amusat comme la création...

et si tu es flemmard justement ... essaie de comprendre ça te liberera de la contrainte d'apprendre par coeur des trus abscons et decourageants... et qu'on oublie en plus hammer

si tu veux que ça tombe tout cuit la ziziue tu envoie ta rape à
denis-px
espace modos
partoch.com

et tu part jouer à guitar hero sur ta console hammer violent2 icon_cheesygrin

y a logntemps un mec a dit ..si tu donne un poisson à un affamé demain il aura encore faim...si tu lui apprends à pecher il se nourrira toute sa vie...

la musique c'est comme l'amour seul c'est bien à plusieurs c'est mieux !
geostras

1 photo
#
denis-px
denis-px a écrit :
y a logntemps un mec a dit ..si tu donne un poisson à un affamé demain il aura encore faim...si tu lui apprends à pecher il se nourrira toute sa vie...


C'est pas mal ça, une citation à retenir bravo

jeguil

Artiste participatif
9 photos
105 messages
#
Ouais et je parie que le type en question était capable de marcher sur l'eau sans se mouiller ! icon_cheesygrin

Ce n'est pas en sciant que Léonard devint scie...
http://ptitelandaise.blogspot.com/
denis-px

Petit causeur
Jeune tabber
1 photo
Membre VIP
66 messages
Modérateur
#
on vois que certains ont lus autre chose que titeuf icon_cheesygrin

la musique c'est comme l'amour seul c'est bien à plusieurs c'est mieux !
jeguil

Artiste participatif
9 photos
105 messages
#
Exact, mais ça se voit tant que ça ? icon_redface
En plus j'ai même pas lu Titeuf ! sad

Ce n'est pas en sciant que Léonard devint scie...
http://ptitelandaise.blogspot.com/
#
hum.. sur se sujet je peut pas t aidé dsl


nouveau message Répondre Recherche


Répondre à cette discussion >>

plan Plan du Forum Solfège||Tags : tout, majeur, question, aide, bonjour, besoin, solfege, fait, ceci