Recherche de Tab : La phaze.


nouveau message Répondre
Recherche

#
Bonjour !
Je cherches désespérément la tablature guitare du morceau "La langue" de La Phaze..
Quelqu'un pourrait il m'aider ?

Merci.

#
Je cherche aussi, si tu trouve tien moi au courrant stp wink

#
Okay. wink

#
BOn j'ai un peu chercher à l'oreille mais vite fait ça donne ça

E ----------------------
B ----------------------
G ----------------------
D ----------------------
A -2--2-2-5-2-----4-----
E ------------2-0-------

puis les accords il me semble mais ça moins sur

E -----0------0----0------0----0---0-----
B -----0------0----0------0----0---0-----
G -----4------7----0------0----7---7-----
D -----4------7----4------2----7---7-----
A --2------5-------4------2--5---5-------
E --------------2------0-----------------

En gros je crois que c'est ça.. ? pas l'habitude de faire des tabs excusez moi x)


nouveau message Répondre Recherche


Répondre à cette discussion >>


Autre liens sur le site pour La Phaze : Discographie La Phaze - Tee Shirt La Phaze - Poster La Phaze
plan Plan du Forum Tablatures||Tags : PHAZE, phaze, cherches, desesperement, bonjour, tab, recherche, tablature, guitare