Details in the fabric - Jason Mraz

close
FILTRES DE LA RECHERCHE


3 messages
Bonsoir !
J'aimerais bien jouer Details in the fabric en arpège mais je trouve que les tabs sur le net ne correspondent pas au rythme de la chanson, les tabs semblent trop courte, comme si il manquait la fin de la tab (pour chaque accord)


------0-0-------------0-------|---------0--------------0----------|
------1--1---1------1---1---1-|-------3---3---3------3---3---3----|
------0----2--------0-----2---|-------0-----0--------0-----0------|
----2-------------2-----------|-----0--------------0--------------|
--0-------------0-------------|---2--------------2----------------|
------------------------------|-----------------------------------|


Je le joue plutôt comme ça : (ca colle mieux mais c'est toujours pas trop ça je crois)
---------0-----------------0---------|
------1---1---1---------1---1---1----|
------0-0----2-2-2------0-0----2-2-2-|
----2-----------1-----2-----------1--|
--0-----------------0----------------|
-------------------------------------|
pareil pour les autres accords

Z'en pensez quoi ? Quelqu'un aurait pas une tab correcte ? J'aimerais la faire en concert dimanche prochain xD
Merci bien


Artiste participatif
Petit tabber
136 messages
Bonjour, pour ma part, j'entends bien distinctement une ligne sur la corde de la comme cela :

--------0---------|--------0---------|
-----1----1--1----|-----1----1--1----|
-----2-----2--2---|-----2-----2--2---|
---2-2------------|---2-2------------|
-0-----0----0--0--|-0----0-----0--0--|
------------------|------------------|
|-|-|-|-|-|-|-|- |-|-|-|-|-|-|-|-
1 2 3 4 1 2 3 4


--------0---------|--------0---------|
-----3----3--3----|-----3----3--3----|
-----0-----0--0---|-----0-----0--0---|
---0-0------------|---0-0------------|
-2-----2----2--2--|-2----2-----2--2--|
------------------|------------------|
|-|-|-|-|-|-|-|- |-|-|-|-|-|-|-|-
1 2 3 4 1 2 3 4
et ainsi de suite !

J'ai noté en bas les numéros des temps pour que ça colle bien.

le rythm fait comme cela :


note-4 note-8note-8 note-8note-8. note-16note-16note-16note-16note-16note-16.

Franck

3 messages
Merci ça colle pas mal du tout ! Je reconnais un peu mieux ce qui est fait dans le cd maintenant !
Mais bon mon concert est déjà passé ^^ Pas grave c'était assez ressemblant mon truc.
merci






>> Plan du Forum Tablatures | suivi de la discussion | Tags : ---, -----, --------------, -------------, ----, les, ------, details, fabric

+