Aerial soad


nouveau message Répondre
Recherche

gwazy62

Petit causeur
48 messages
#
Bonjour voila , bon deja je suis super heureux car j'ai enfin compris et reussi comment accorder ma guitar en Drop C :p enfin bref^^ love

j'ai apris Aerial de soad pas de pb pour l'intro et pour la jouer etc.. mais a un moment dans la tablature on au

|----------|---------|-----------------------|-----------------------|
|*---------|---------|---------12---------10-|----------9---------7-*|
|*-8-8-8-8-|-8-8-8-8-|-0-0-0-0-x--0-0-0-0--x-|-0-0-0-0--x-0-0-0-0-x-*|
|--8-8-8-8-|-8-8-8-8-|-0-0-0-0-10-0-0-0-0--8-|-0-0-0-0--7-0-0-0-0-5--|
|--8-8-8-8-|-8-8-8-8-|-0-0-0-0----0-0-0-0----|-0-0-0-0----0-0-0-0----|
P.M. - | P.M. - | P.M. - | P.M. - |
( site http://www.ultimate-guitar.com/tabs/s/system_of_a_down/aerials_tab.htm )

je ne comprend comme jouer les 12
x
10

etc... je sais que le X veux dire que c'est une note etouffée mais comment la jouer ici ???
merci de vos conseils bump

guizicos

God of Partoch
Jeune tabber
4 photos
7062 messages
#
Salut, tu peux faire "insertion/tablature" quand tu veux poster un bout de tab, elle sera plus joliment insérée wink

gwazy62
gwazy62 a écrit :

|----------|---------|-----------------------|-----------------------|
|*---------|---------|---------12---------10-|----------9---------7-*|
|*-8-8-8-8-|-8-8-8-8-|-0-0-0-0-x--0-0-0-0--x-|-0-0-0-0--x-0-0-0-0-x-*|
|--8-8-8-8-|-8-8-8-8-|-0-0-0-0-10-0-0-0-0--8-|-0-0-0-0--7-0-0-0-0-5--|
|--8-8-8-8-|-8-8-8-8-|-0-0-0-0----0-0-0-0----|-0-0-0-0----0-0-0-0----|
P.M. - | P.M. - | P.M. - | P.M. - |

( site http://www.ultimate-guitar.com/tabs/s/system_of_a_down/aerials_tab.htm )

je ne comprend comme jouer les 12
x
10

etc... je sais que le X veux dire que c'est une note etouffée mais comment la jouer ici ???
merci de vos conseils bump


Et bien ici rien de bien compliquer, tu met ton index sur la corde de La (je suppose) en case 10. Puis ton annulaire sur la corde de Sol en case 12. C'est en fait ton index qui va étouffer la corde de Ré wink

Bonne gratte smiley-guitar

gwazy62

Petit causeur
48 messages
#
Merci bien niquel :p smiley-guitar smiley-guitar smiley-guitar


nouveau message Répondre Recherche


Répondre à cette discussion >>


Autre liens sur le site pour System Of A Down : Discographie System Of A Down - Tee Shirt System Of A Down - Poster System Of A Down
plan Plan du Forum Tablatures||Tags : jouer, etc, ----, guitar, comment, aerial, soad, enfin, ---------