probleme de lecture de tab

close
FILTRES DE LA RECHERCHE

bonjour, je suis nouveau sur le forum et debutant en guitare, voila j ai une question sur les tabs. Je me demandais juste comment jouer ce genre de tab avec le nom de l accord au dessus de la tab et des frettes a jouer qui ne correspondent pas exactement a l accord ?


Am G Em C
e|---------------------------------------------------------------------------|
B|------1---0----------------0--------------1---0----1---------1---0---------|
G|------------2----------------0------------------0------------------0-------|
D|----2---2-----2----------0-----0--------2---2-----2--------2---2-----2-----|
A|--0-------------0------2--------------2------------------3-----------------|
E|---------------------3--------------0--------------------------------------|

sandinista

Sous Dieu du Forum
Mega Tabber
Mangeur de Tabs
6 photos
3184 messages
bjeanmi a écrit :


....Am......*..........G..............Em....*..............C.......*....
e|---------------------------------------------------------------------------|
B|------1---0----------------0--------------1---0-----1--------1---0---------|
G|------------2----------------0------------------0------------------0-------|
D|----2---2-----2----------0-----0--------2---2-----2--------2---2-----2-----|
A|--0-------------0------2--------------2------------------3-----------------|
E|---------------------3--------------0--------------------------------------|
....^ ^ v ^ v v v v....^ ^ ^ v v v....^ ^ ^ v ^ v v ^ v....^ ^ v ^ v v v


C'est ce que l'on appelle un arpége avec sauts de cordes.
Tu poses les 4 accords en entier aux emplacements indiqués et tu égrennes les cordes une par une comme indiquées sue la tab.
Mais au niveau des ( * ) tu souléve ou tu pose l'index sur la 1ére case de la corde de SI.
Je t'ai aussi rajouté les aller/retour médiator wink

C'est quoi ce morceau ???

A+ smiley-guitar

ah ok merci, c est tout simple en fait !

c est une partie de la tab de : The Day That Never Comes de metallica




>> Plan du Forum Débutants | suivi de la discussion | Tags : ---, -----, tab, ------------------, --------------, jouer, --------, accord, ----------------



+