YODELICE

Tablature my blood is burning

Yodelice
Pop/Rock
Ajouter à mes artistes favoris
Format : Tablature My blood is burning, Yodelice
Version #3084042 mise en tablature par hedwigeooo
Difficulté : 3/10
Note : 1/5 sur 3 avis

Tablature My blood is burning, Yodelice

Yodelice - My Blood Is Burning. La rytmique est simple et dynamique, utile pour mettre de l'ambiance ! (bas) (bas) (bas) (bas) (bas-haut-bas)(bas-haut-bas) |---10-----10-----10-----10---|---3--3--3-----6--6--6-----| |---10-----10-----10-----10---|---3--3--3-----6--6--6-----| |---11-----11-----11-----11---|---4--4--4-----7--7--7-----| (x3) |---12-----12-----12-----12---|---5--5--5-----8--8--8-----| |---12-----12-----12-----12---|---5--5--5-----8--8--8-----| |---10-----10-----10-----10---|---3--3--3-----6--6--6-----| |---10-----8-----5-----3-----1---| |---10-----8-----5-----3-----1---| |---11-----9-----6-----4-----4---| (x1) |---12-----10----7-----5-----5---| |---12-----10----7-----5-----5---| |---10-----8-----8-----3-----3---| Solo: Le solo sera déposé la semaine prochaine, merci. ----------------------------------------------- ----------------------------------------------- ----------------------------------------------- ----------------------------------------------- ----------------------------------------------- ----------------------------------------------- Voila, Bon Courage, ce morceau est magnifique !

Note cette tablature :



Connecte toi pour déposer un commentaire sur cette tablature !

Vos avis sur la tablature My Blood is Burning de yodelice #3084042


souris17

souris17

le 10/08/2014 13:00:39

et la partie basse en tab ?


jugarejatipupiqo

jugarejatipupiqo

le 11/08/2011 21:48:02

J'ai trouvé ça, qui a l'air de sonner pas trop à côté.


---6-
les --8-- se jouent quasiment en grattant les trois cordes d'un coup (la position est un D#)
-8---

--6-------------------------------
-8--9-8---------------9-9-----9--8---
-8------8-----------8--------8--8-----
-----------9--8-6/8-------------------

--6-------------------------------
-8--9-8---------------9-11b---9--8---
-8------8-----------8-----------------
-----------9--8-6/8-------------------

--6-------------------------------
-8--9-8---------------9-9-----9--6---
-8------8-----------8--------8--8-----
-----------9--8-6/8-------------------

------------------11--13b-------11-------------------------
-6h8------ 11h13 ------------13----11---13d11----11b-------
---------------------------------------------12------12-----
---------------------------------------------------------13-

--6-------------------------------
-8--9-8---------------9-9-----9--8---
-8------8-----------8--------8--8-----
-----------9--8-6/8-------------------

--6-------------------------------
-8--9-8---------------9-11b---9--8---
-8------8-----------8-----------------
-----------9--8-6/8-------------------

--6-------------------------------
-8--9-8---------------9-9-----9--6---
-8------8-----------8--------8--8-----
-----------9--8-6/8-------------------


J'la force tranquille XD


guillapost

guillapost

le 08/03/2011 09:14:17

aurai tu le solo? merci


Tree Of Live

Tree of live
Type : Partition
Edition Beuscher

23,00 €

tablature My Blood is Burning yodelice

Cette Tablature My Blood is Burning de yodelice est la création ou l'interprétation personnelle de l'artiste qui l'a déposé.
Conformément aux dispositions du Code de la Propriété Intellectuelle, seule l'utilisation de cette représentation pour un usage privé, réduite au cercle de famille, et la reproduction (impression, téléchargement) pour un usage strictement personnel, sont autorisés.
Rappel : Pour se conformer aux lois sur la propriété intellectuelle, les paroles de chansons ne sont pas autorisées sur Partoch.com. Retour aux Tablatures de yodelice.