TV

Tablature the godfather theme par slash

Tv
Variétés
Ajouter à mes artistes favoris
Format : Tablature The godfather theme par slash, Tv
Version #3064978 mise en tablature par cowboykenny13
Difficulté : 3/10
Note : 4/5 sur 15 avis

Tablature The godfather theme par slash, Tv

Pas trés compliquée, mais jouer lentement et bien vibrer !!! Intro perso de Slash: E 9--8--9--10--9--9--5--9--8--9--12--9--8--11--9--9-- B --------------------------------------------------- G --------------------------------------------------- D --------------------------------------------------- A --------------------------------------------------- E --------------------------------------------------- Debut du theme: E 0--5--8--7--5--8--5--7--5--1--3--0----0--5--8--7--5--8--5--7--5--0------- B --------------------------------------------------------------------5--4- G ------------------------------------------------------------------------- D ------------------------------------------------------------------------- A ------------------------------------------------------------------------- E ------------------------------------------------------------------------- E --1--4--7--1--4--5--0--3--3--1--0--0--4--5--5--5--4--3--3--7--3--1--0---- B 3------------------------------------------------------------------------ G ------------------------------------------------------------------------- D ------------------------------------------------------------------------- A ------------------------------------------------------------------------- E ------------------------------------------------------------------------- E 0--3--3--1--0--0--4----5--- B --------------------------- G --------------------------- D --------------------------- A --------------------------- E --------------------------- Bonne gratte a tous !!!

Note cette tablature :



Connecte toi pour déposer un commentaire sur cette tablature !

Vos avis sur la tablature The GodFather Theme par Slash de tv #3064978


az11

az11

le 02/05/2014 13:35:08

Il semblerait que le dernier 4 soit doubler ,non?


az11

az11

le 28/04/2014 11:48:02

Exelent


az11

az11

le 28/04/2014 11:39:09

Exelent


c-pierre 98

c-pierre 98

le 19/03/2012 17:59:26

Excellente tablature, très fidèle, bonne continuation ! :)


danas

danas

le 27/06/2010 15:17:50

franchement génialepour des débutants, dés que tu auras le temps tu saurais mettre appollonia en tab ? ^^


Inconnu...

Inconnu...

le 23/01/2010 13:21:22

désolé mai se nait pas la bonne tab|sa c'est la vrai
----------------------------------------------------------------|
|-15---14-15-16--15-15---------15---14-15-16--15-15--------------|
|----------------------15---------------------------14-----------|
|----------------------------------------------------------------|
|----------------------------------------------------------------|
|----------------------------------------------------------------|
br br br br
|------------------------/--------/-------------/-------------|
|-15---14-15-18--15-14-15-(15)---14-(14)---/---14-(14)----------|
|----------------------------------------14-(14)--------14-------|
|----------------------------------------------------------------|
|----------------------------------------------------------------|
|----------------------------------------------------------------|

|----10-13-12-10-13-10-12-10-------------------------------------|
|-10-------------------------11-13-10----------------------------|
|----------------------------------------------------------------|
|----------------------------------------------------------------|
|----------------------------------------------------------------|
|----------------------------------------------------------------|
s
|----10-13-12-10-13-10-12-10-------------------------------------|
|-10-------------------------/10-9-8-----------------------------|
|----------------------------------------------------------------|
|----------------------------------------------------------------|
|----------------------------------------------------------------|
|------------------------------------------------------------


kibaiki

kibaiki

le 03/11/2009 12:58:24

hey ta tab et superbe jpense que les debutant fan de slas seron content coml moi srx big job big nice


kakashi-atake

kakashi-atake

le 12/09/2009 12:01:59

frenchement genial , bravo a toi et merci ^^


tom78

tom78

le 22/08/2009 15:47:42

tres bonne partition dommage qu'il n'y est pas la suite...
bonne continuation...


Inconnu...

Inconnu...

le 02/08/2009 01:55:01

Génial franchement respect et continu comme ça !!!! wink


gwen59

gwen59

le 23/07/2009 19:59:37

super cool mais c'est dommage que la tad ne soit pas en entiere


epiphoneman

epiphoneman

le 03/01/2009 20:12:05

J'ai réctifié la fin de la deuxième portée: au lieu de 5 puis après 4 j'ai mis 4 puis 3. Bien entendu je l'ai fait sur ma feuille. Je trouve que ça sonne mieux.


epiphoneman

epiphoneman

le 03/01/2009 17:59:41

excuse-moi l'ami pour t'avoir copié la fin de ta réplique.


epiphoneman

epiphoneman

le 03/01/2009 17:57:51

rien à dire a part: le rêve est enfin accessible! Je vais la jouer jusqu'à m'en exploser les doigts!


Inconnu...

Inconnu...

le 22/05/2008 14:44:21

magnifique je me la gratte jusqu'a m'en exploser les doigts


tablature The GodFather Theme par Slash tv

Cette Tablature The GodFather Theme par Slash de tv est la création ou l'interprétation personnelle de l'artiste qui l'a déposé.
Conformément aux dispositions du Code de la Propriété Intellectuelle, seule l'utilisation de cette représentation pour un usage privé, réduite au cercle de famille, et la reproduction (impression, téléchargement) pour un usage strictement personnel, sont autorisés.
Rappel : Pour se conformer aux lois sur la propriété intellectuelle, les paroles de chansons ne sont pas autorisées sur Partoch.com. Retour aux Tablatures de tv.