TV

Tablature les simpsons

Tv
Variétés
Ajouter à mes artistes favoris
Format : Tablature Les simpsons, Tv
Version #3051392 mise en tablature par iamemilie1991
Difficulté : 2/10
Note : 3/5 sur 16 avis

Tablature Les simpsons, Tv

|----12-14-17-15-12------------------------------------------| |-13----------------13---------------------------------------| |----------------------14-11-11-11-12-11-11-11-12-12-12-12-12| |------------------------------------------------------------| |------------------------------------------------------------| |------------------------------------------------------------|

Note cette tablature :



Connecte toi pour déposer un commentaire sur cette tablature !

Vos avis sur la tablature les simpsons de tv #3051392


Inconnu...

Inconnu...

le 25/03/2011 17:42:35

Sa mérite pas plus de 3/5 !!


max.g

le 24/12/2010 14:23:38

la fin n'est pas bien c'est pas sa mes le début est super 3/5 DSL.


deagle-killer

deagle-killer

le 15/06/2008 13:53:27

Celle de Guitar pro gamer est excellente.


steven2591

steven2591

le 24/04/2008 16:41:17

yen a aucune qui es bonne j'ai trouve


Inconnu...

Inconnu...

le 15/04/2008 14:07:01

bof


Inconnu...

Inconnu...

le 14/12/2007 18:04:27

Guitar pro gamer je trouve ça juste Bien joué et merci wink


Inconnu...

Inconnu...

le 20/11/2007 13:10:30

gaia on doit faire 13


Inconnu...

Inconnu...

le 10/11/2007 10:29:00

on doi faire pour le debut -13- ou 1-3 ?


jpc

jpc

le 04/09/2007 16:06:41

moi je suis debutant donc ji arive pas tre bien me je pense que c'est ca


Inconnu...

Inconnu...

le 05/08/2007 10:03:56

Moi je dirais plutot que ça fait,(en suivant votre version):

|--2-4-7-5--2----------------------------------------------
|3------------3--------------------1--3-3-3-3-------------
|---------------4-1-1-1-2--1-1-1-2-------------------
|-------------------------------------------------------
|-----------------------------------------------------
|-----------------------------------------------------


Inconnu...

Inconnu...

le 04/07/2007 14:15:22

celle de shooterman est bonne j crois


mat.hs

mat.hs

le 25/06/2007 01:01:43

Ouais, c'est bon, ça j'ai voté 5 pour la version de shooterman !


Inconnu...

Inconnu...

le 17/06/2007 00:50:04

Oui à la fin ça monte , ça donnerai plutôt ça :


|----2-4-7-5-2---------------------------------------------|
|-3----------------3---------------------------------------|
|----------------------4-1-1-1-2-1-1-1-2-2-4-4-4-4---------
|----------------------------------------------------------|
|----------------------------------------------------------|
|----------------------------------------------------------|


clementdum

clementdum

le 09/12/2006 17:57:58

la fin de vos morceau sont pas clair il manque un morceau je crois


Inconnu...

Inconnu...

le 11/11/2006 17:54:42

moi j'ai trouvé le même mais sans les 1 ^^ ce qui donne

|----2-4-7-5-2----------------------------------|
|-3----------------3----------------------------|
|----------------------4-1-2-1-1-1-1-4-4-4-4----|
|-----------------------------------------------|
|-----------------------------------------------|
|-----------------------------------------------|

Pour la fin jsuis pas sur pour mes modifications mais jcrois que c'est bon ^^


tablature les simpsons tv

Cette Tablature les simpsons de tv est la création ou l'interprétation personnelle de l'artiste qui l'a déposé.
Conformément aux dispositions du Code de la Propriété Intellectuelle, seule l'utilisation de cette représentation pour un usage privé, réduite au cercle de famille, et la reproduction (impression, téléchargement) pour un usage strictement personnel, sont autorisés.
Rappel : Pour se conformer aux lois sur la propriété intellectuelle, les paroles de chansons ne sont pas autorisées sur Partoch.com. Retour aux Tablatures de tv.