TV

Tablature jeux interdits

Tv
Variétés
Ajouter à mes artistes favoris
Format : Tablature Jeux interdits, Tv
Version #3077123 mise en tablature par gax30
Difficulté : 1/10
Note : 4/5 sur 46 avis

Tablature Jeux interdits, Tv

Slt a tous c'est ma première tab dc c pas sur que ce soit le top ! Jeux interdit pour débutant Ce jouent sur la corde MI aigu 7-7-7-7-5-3-3-2-0-0-3-7-12-12-12-12-10-8-8-7-5-5-7-8-7-8-7-11-8-7-7-5-3-3-2-0-2-2-2-2-3-2-0-0-0-0

Note cette tablature :



Connecte toi pour déposer un commentaire sur cette tablature !

Vos avis sur la tablature jeux interdits de tv #3077123


bambielouna

bambielouna

le 30/01/2015 13:40:51

super je débute


blackhawk38

blackhawk38

le 11/09/2013 14:53:43

Super !!!! :)


me10

me10

le 25/05/2013 20:09:06

mrc c'est est cool


sylvain22

sylvain22

le 29/04/2013 18:24:41

C'est génial ! ais il manque a deuxième partie de la chanson alors si tu peux la mettre, ça serait sympa mais sinon très bien


flomaette

flomaette

le 15/08/2011 17:07:02

Parfait moi qui vien juste de commencer la guitare


Inconnu...

Inconnu...

le 08/08/2011 05:36:21

Mercii à Toi infiniment !! Je n'arrivais pas à trouver la fin : DD


Inconnu...

Inconnu...

le 15/06/2011 20:05:58

Super Tablature ! 5/5 ! :)


Inconnu...

Inconnu...

le 28/04/2011 12:33:31

Bravo ! Merci pour cette tab sympa wink


aurore1216

aurore1216

le 27/02/2011 17:49:15

Merci beaucoup.5/5


Inconnu...

Inconnu...

le 19/02/2011 19:29:47

moi je joue celle la elle passe bien a l'oreille

2x
7-7-7-7-5-3-3-2-0-0-3-7-12-12-12-12-10-8-8-7-5-5-7-8-7-8-7-11-8-7-7-5-3-3-2-0-2-2-2-2-3-2-0-0-0-0
0-0-0-0-0-0-0-0-0-0-0-0- 0- 0- 0- 0- 0-0-0-0-0-0-0-0-0-0-0- 0-0-0-0-0-0-0-0-0-0-0-0-0-0-0-0-0-0-0
0-0-0-0-0-0-0-0-0-0-0-0- 0- 0- 0- 0- 0-0-0-0-0-0-0-0-0-0-0- 0-0-0-0-0-0-0-0-0-0-0-0-0-0-0-0-0-0-0
-------------------------------------------------------------------------------------------------
-------------------------------------------------------------------------------------------------
0-----0-----0-----0------0--------0------0-----0-----0------0-----0-----0-----0-----0-----0-----0

2x
merie mercie je suis trop fort


adelina

adelina

le 03/02/2011 16:33:10

parfait


Inconnu...

Inconnu...

le 31/12/2010 21:05:04

thangy tes fan de aerosmith??????


djvinz

djvinz

le 28/11/2010 12:30:58

moi je joue celle la elle passe bien a l'oreille

2x
7-7-7-7-5-3-3-2-0-0-3-7-12-12-12-12-10-8-8-7-5-5-7-8-7-8-7-11-8-7-7-5-3-3-2-0-2-2-2-2-3-2-0-0-0-0
0-0-0-0-0-0-0-0-0-0-0-0--0--0--0--0--0-0-0-0-0-0-0-0-0-0-0--0-0-0-0-0-0-0-0-0-0-0-0-0-0-0-0-0-0-0
0-0-0-0-0-0-0-0-0-0-0-0--0--0--0--0--0-0-0-0-0-0-0-0-0-0-0--0-0-0-0-0-0-0-0-0-0-0-0-0-0-0-0-0-0-0
-------------------------------------------------------------------------------------------------
-------------------------------------------------------------------------------------------------
0-----0-----0-----0------0--------0------0-----0-----0------0-----0-----0-----0-----0-----0-----0

2x
une autre que je connais pas encor.


pardon pour le cafouillage.


djvinz

djvinz

le 28/11/2010 12:29:05


moi je joue celle la elle passe bien a l'oreille

2x
7-7-7-7-5-3-3-2-0-0-3-7-12-12-12-12-10-8-8-7-5-5-7-8-7-8-7-11-8-7-7-5-3-3-2-0-2-2-2-2-3-2-0-0-0-0
0-0-0-0-0-0-0-0-0-0-0-0- 0- 0- 0- 0- 0-0-0-0-0-0-0-0-0-0-0- 0-0-0-0-0-0-0-0-0-0-0-0-0-0-0-0-0-0-0
0-0-0-0-0-0-0-0-0-0-0-0- 0- 0- 0- 0- 0-0-0-0-0-0-0-0-0-0-0- 0-0-0-0-0-0-0-0-0-0-0-0-0-0-0-0-0-0-0
-------------------------------------------------------------------------------------------------
-------------------------------------------------------------------------------------------------
0-----0-----0-----0------0--------0------0-----0-----0------0-----0-----0-----0-----0-----0-----0

2x
une autre que je connais pas encor.


coc8888

coc8888

le 05/11/2010 18:16:25

super tablature la jouer en arpege c'est mieu et on peu aussi ajouter le mi grave pour ceu qui save bien la faire 5/5


Inconnu...

Inconnu...

le 03/11/2010 14:42:02

Tanguy44 ~> c'est un film dramatique des années 50, qui parle de la guerre ...

Sinon super la tab, 5/5 icon_cheesygrin


marine57050

marine57050

le 02/11/2010 14:13:23

Merci beaucoup, pour débuter c'est l'idéal !


Inconnu...

Inconnu...

le 27/10/2010 17:14:36

Huuum ces la toute première fois de ma vie que je joue a la guitare & j'ai vraiment du mal a comprendre les rythmique si quelqu'un peut m'aidé ! Merci d'avance


Inconnu...

Inconnu...

le 17/10/2010 14:36:45

SUPER mais c'est quoi jeux interdits XD?


Inconnu...

Inconnu...

le 12/10/2010 21:17:15

Alors là ... Super Tab pour les débutants comme moi ... Rien à redire ...SUPER


syden-hearts

syden-hearts

le 22/09/2010 12:39:33

Merci super chanson et super tablature


Inconnu...

Inconnu...

le 19/09/2010 11:06:36

SUPER 5/5


Inconnu...

Inconnu...

le 05/09/2010 15:48:55

tres bonne tablature


bbrockstar

bbrockstar

le 31/08/2010 21:25:56

magnifique tablature bravo pour une première je met 5


cloiche54

cloiche54

le 27/08/2010 11:50:29

5/5 merci et super tablature !!!!!!!


guitare14100

guitare14100

le 22/07/2010 21:31:27

Franchement super pour une débutante comme moi Merci icon_cheesygrin 5/5


poino

poino

le 08/07/2010 20:04:17

Superbe, mon pote me l'a jouer en arpege et je voulait absolument l"apprendre mais c'était trop dur et grace à toi je peux le jouer.(En simplifier bien sur ^^)

Donc franchement merci et bonne continuation. 5/5


antoine30

antoine30

le 25/05/2010 18:40:14

merci beaucoup


ch0upii

ch0upii

le 21/03/2010 11:06:39

Merci beaucoup pour cette tablature super sympa et simple pour les débutants!


Inconnu...

Inconnu...

le 14/02/2010 14:04:38

elle est cool ta tablature elle est simple donc voila 5/5


manoz

manoz

le 06/02/2010 20:52:15

La tab est très bien pour ceux qui veulent absolument apprendre cette chanson en premier.
Il faut d'abbord la jouer sur une seule corde comme expliqué puis petit à petit dès que les doigts se seront habitués à la mélodie, commencer l'arpège.

Par contre j'ai l'impression que tu as juste oublié une note à la fin. J'aurais plutôt fais comme ça :

7-7-7-7-5-3-3-2-0-0-3-7-12-12-12-12-10-8-8-7-5-5-7-8-7-8-7-11-8-7-7-5-3-3-2-0-2-2-2-2-3-2-0-0-0-0
(4 fois le 2).

A part ça, j'ai appris la première partie de jeux interdits en 1 semaine alors que je n'avais jamais touché une guitare grâce à ce genre de tab'. Merci =)


Inconnu...

Inconnu...

le 17/01/2010 13:01:10

merci pr cette tab elle très simple c'est super


emo-tiio-nelle--trash

emo-tiio-nelle--trash

le 16/01/2010 16:39:56

Superbe (Y)
Mon Premier Morceaux


Inconnu...

Inconnu...

le 16/01/2010 13:19:03

Super tablature pour débutant mais c'est super dure les arpeges comment faut les jouer ?!


Inconnu...

Inconnu...

le 16/01/2010 12:58:49

essay de la mettre en arpege c'est bien les note mais tu doit les jouer avec les deux corde du dessu sa rend mieux


destreuil

destreuil

le 13/08/2009 10:39:41

cool mais note la en arpege... ce sa rendrai mieux...


Inconnu...

Inconnu...

le 12/08/2009 22:38:41

Je ne connais pas la chanson, c'est ma mere qui a reconnu et dit que c'est bien ta tab est super


Inconnu...

Inconnu...

le 05/08/2009 20:58:57

Merci beaucoup depuis le temps que je la cherche sans accord, comme je ne sais pas encore bien les faire. c'est cool =D


Inconnu...

Inconnu...

le 05/08/2009 20:58:40

Merci beaucoup depuis le temps que je la cherche sans accord, comme je ne sais pas encore bien les faire. c'est cool =D


tablature jeux interdits tv

Cette Tablature jeux interdits de tv est la création ou l'interprétation personnelle de l'artiste qui l'a déposé.
Conformément aux dispositions du Code de la Propriété Intellectuelle, seule l'utilisation de cette représentation pour un usage privé, réduite au cercle de famille, et la reproduction (impression, téléchargement) pour un usage strictement personnel, sont autorisés.
Rappel : Pour se conformer aux lois sur la propriété intellectuelle, les paroles de chansons ne sont pas autorisées sur Partoch.com. Retour aux Tablatures de tv.