TRADITIONNEL

Tablature mariage

Traditionnel
Variétés
Ajouter à mes artistes favoris
Format : Tablature Mariage, Traditionnel
Version #3060548 mise en tablature par oliver.91
Difficulté : 1/10
Note : 4/5 sur 36 avis

Tablature Mariage, Traditionnel

E-------------------------------------------------------- B-------------------------------------------------------- G--------------------------------0----------------------- D-----0--0-0-----2--0-0-----0--4------4--2--0-----0-2---- A--0----------0----------0---------------------4--------- E-------------------------------------------------------- Sinon sur n'importe quelle corde vous pouvez faire: --0--5--5-5--0--7--5-5--0--5--9-10--9--7--5--4--5--7--- Dites vraiment ce que vous en pensez même si c'est ma première tab ^^ !

Note cette tablature :

L'autre tablature disponible pour ce titre :

  • Pour Guitare :
  • Tablature Mariage (refrain) par chamalo
  • << Retour aux tablatures de traditionnel

    Gospel N° 6

    Gospel n° 6
    Type : Partition
    Edition Lemoine

    23,30 €



    Connecte toi pour déposer un commentaire sur cette tablature !

    Vos avis sur la tablature Mariage de traditionnel #3060548


    panda music

    panda music

    le 28/08/2016 10:01:49

    Moi je dirais plûtot ça :

    E--------------------------------------------------------

    B--------------------------------------------------------

    G--------------------------------2-----------------------

    D-----0--0-0-----2--0-0-----0--4------4--2--0-----0-2----

    A--0----------0----------0---------------------4---------

    E--------------------------------------------------------


    panda music

    panda music

    le 28/08/2016 10:01:05

    Moi je dirais plûtot ça :

    E--------------------------------------------------------

    B--------------------------------------------------------

    G--------------------------------2-----------------------

    D-----0--0-0-----2--0-0-----0--4------4--2--0-----0-2----

    A--0----------0----------0---------------------4---------

    E--------------------------------------------------------

    E--------------------------------------------------------

    B--------------------------------------------------------

    G--------------------------------0-----------------------

    D-----0--0-0-----2--0-0-----0--4------4--2--0-----0-2----

    A--0----------0----------0---------------------4---------

    E--------------------------------------------------------


    gabin153

    gabin153

    le 01/05/2016 21:19:58

    j'aime bien mais bon c'est trop court et je doit jouer un morceau pour le mariage de ma tante et donc il m'en faut au moins un de 50 sec lol


    jimi23

    jimi23

    le 23/06/2014 12:49:52

    le 0 sur la corde G me vrille dans les oreilles,mais merci quant même,je peux arranger cela^^!


    siissy86

    siissy86

    le 09/05/2013 21:42:58

    Merci :p c'est génial !


    bibi-lastars

    bibi-lastars

    le 18/09/2011 09:25:11

    Merci beaucoup c'est super =D


    la fausse anarchiste

    la fausse anarchiste

    le 04/08/2011 12:52:18

    Hey mais c'est super ça !! Merci beaucoup 4/5


    reynick

    reynick

    le 25/04/2011 20:38:56

    C'est bien ! (et il y a intéret !!) un mariage aura lieu dans pas londtemps et ils veulent que je joue ce morceau a la guitare a l'eglise devans une centaine de personne (au secour !)

    En tout cas si les invités aiment pas, c'est ta faute ! je plaisante


    ogust

    ogust

    le 21/06/2010 19:27:54

    c'est cool mais un peus court tu devrais mettre +2


    Inconnu...

    Inconnu...

    le 29/12/2009 13:40:56

    a partir de 0-5-9-10 je dirais plutot 0-5-9-12 sa le fai mieux et le 4-5 le fai mieu mais c'est pas mal tout de meme


    dig7

    dig7

    le 25/11/2009 12:16:10

    coool ^^


    adidi31

    adidi31

    le 04/09/2009 14:18:07

    tout simplement génial


    Inconnu...

    Inconnu...

    le 20/08/2009 15:30:45

    le deuxieme truc qe tu dis c'est cool ça marche tank you


    jojo10

    jojo10

    le 01/06/2009 13:11:42

    very good


    sara.mb

    sara.mb

    le 27/05/2009 20:32:16

    very good !


    Inconnu...

    Inconnu...

    le 26/05/2009 18:20:38

    bien!


    Inconnu...

    Inconnu...

    le 08/10/2008 16:43:18

    pas mal je la trouve bien


    Inconnu...

    Inconnu...

    le 15/06/2008 17:52:54

    Pour le moment j'arrive que le début mais ça ressemble bien ^^


    Inconnu...

    Inconnu...

    le 12/04/2008 13:26:45

    a la fin de sa --0--5--5-5--0--7--5-5 je propoz 4-5 nn? sa donne
    --0--5--5-5--0--7--4-5...


    tablature Mariage traditionnel

    Cette Tablature Mariage de traditionnel est la création ou l'interprétation personnelle de l'artiste qui l'a déposé.
    Conformément aux dispositions du Code de la Propriété Intellectuelle, seule l'utilisation de cette représentation pour un usage privé, réduite au cercle de famille, et la reproduction (impression, téléchargement) pour un usage strictement personnel, sont autorisés.
    Rappel : Pour se conformer aux lois sur la propriété intellectuelle, les paroles de chansons ne sont pas autorisées sur Partoch.com. Retour aux Tablatures de traditionnel.