BLACK EYED PEAS

Tablature i gotta feeling

The Black Eyed Peas
Rap Soul
Ajouter à mes artistes favoris
Format : Tablature I gotta feeling, The black eyed peas
Version #3078697 mise en tablature par joefull
Difficulté : 2/10
Note : 4/5 sur 53 avis

Tablature I gotta feeling, The black eyed peas

E||--3----3----3----3----|--3----3----3----3----|--3----3----3----3----| B||--3----3----3----3----|--1----1----0----0----|--1----1----1----1----| G||--0----0----0----0----|--0----0----0----0----|--0----0----0----0----| D||----------------------|----------------------|----------------------| A||----------------------|----------------------|----------------------| E||----------------------|----------------------|----------------------| --3----3----3----3----|--3----3----3----3----|--3----3----3----3----| --1----1----1----1----|--0----0----0----0----|--0----0----0----0----| --0----0----0----0----|--0----0----0----0----|--0----0----0----0----| ----------------------|----------------------|----------------------| ----------------------|----------------------|----------------------| ----------------------|----------------------|----------------------| --3----3----3----3----|--3----3----3----3----|------------5----8----| --1----1----1----1----|--1----1----1----1----|--5----8--------------| --0----0----0----0----|--0----0----0----0----|----------------------| ----------------------|----------------------|----------------------| ----------------------|----------------------|----------------------| ----------------------|----------------------|----------------------| --7--------------8----|--7----5--------------|--8----7--------------| -------5----8---------|------------8----5----|------------5----8----| ----------------------|----------------------|----------------------| ----------------------|----------------------|----------------------| ----------------------|----------------------|----------------------| ----------------------|----------------------|----------------------| --8----7----5---------|-------10----7---------|-------10----7----5----| -----------------8----|--5---------------5----|--8--------------------| ----------------------|-----------------------|-----------------------| ----------------------|-----------------------|-----------------------| ----------------------|-----------------------|-----------------------| ----------------------|-----------------------|-----------------------| ------------10----10----|--7----5---3| --8----5----------------|------------| ------------------------|------------| ------------------------|------------| ------------------------|------------| ------------------------|------------| Ces ma première tab alors toute les critiques sont bonne a prendre !

Note cette tablature :



Connecte toi pour déposer un commentaire sur cette tablature !

Vos avis sur la tablature I gotta feeling de the black eyed peas #3078697


Inconnu...

Inconnu...

le 18/03/2012 17:55:01

♪ Super Tablature .. Mais comme certains Je ne comprends pas ce que fais Les 8 , 5 ..
Sinon Super ♪


matootoo

matootoo

le 13/11/2011 21:40:10

Super tablature et moi aussi je ne voyais pas c'etait quoi le 8--5 ect.. mais en faite grace a une autre tablature j'ai remarquer que si on jouer bien le rythme du refrain sa passer

c'est une super tablature sa merite un 5/5 bravo !! wink


Inconnu...

Inconnu...

le 12/10/2011 15:07:21

C'est cool mais pour l'instant je ne capte pas le :

------------5----8----|
--5----8--------------|
----------------------|
----------------------|
----------------------|
----------------------|

--7--------------8----|--7----5--------------|--8---7---------------|
-------5----8---------|------------8----5----|------------5----8----|
----------------------|----------------------|----------------------|
----------------------|----------------------|----------------------|
----------------------|----------------------|----------------------|
----------------------|----------------------|----------------------|


--8----7----5---------|-------10----7---------|-------10----7----5----|
-----------------8----|--5---------------5----|--8--------------------|
----------------------|-----------------------|-----------------------|
----------------------|-----------------------|-----------------------|
----------------------|-----------------------|-----------------------|
----------------------|-----------------------|-----------------------|


------------10----10----|--7----5---3|
--8----5----------------|------------|
------------------------|------------|
------------------------|------------|
------------------------|------------|
------------------------|------------|


stan27

stan27

le 09/09/2011 20:51:28

genial rien a dire
:):)


Inconnu...

Inconnu...

le 09/08/2011 18:59:44

J'ai beau écouter le titre je repere pas les 8-5 et tout ça


Inconnu...

Inconnu...

le 24/07/2011 19:55:45

bien .


guiguidu35133

guiguidu35133

le 28/06/2011 22:41:21

smile


guiguidu35133

guiguidu35133

le 28/06/2011 22:40:44

:)


Inconnu...

Inconnu...

le 08/06/2011 15:33:05

super tab,merci mec tes cool.


Inconnu...

Inconnu...

le 30/05/2011 18:17:31

Super ! icon_cheesygrin


freeskate

freeskate

le 19/03/2011 15:02:29

super tab merci encore et bravo pour une premiere tab


Inconnu...

Inconnu...

le 12/03/2011 19:00:31

Merci beaucoup pour cette magnifique tab et continue comme ça smile


samir25

samir25

le 06/03/2011 16:04:32

je vois que vous aimer cette tab mais j y comprends rien au 5----8--------------|
svp aidez moi


Inconnu...

Inconnu...

le 19/12/2010 15:21:42

Je ne vois pas ce que c'est le ----|------------5----8----|


koko56450

koko56450

le 06/12/2010 18:43:25

EXELENT !!!merci cette tab est magnifique, au debut je pensait que sa allait etre nul ( les tab pour debutant sont pas super parfois ) mais la je retire ce que j'ai dit 5/5


Inconnu...

Inconnu...

le 29/11/2010 21:21:25

super !! bravo pour une 1ere tab!!! 5/5


Inconnu...

Inconnu...

le 16/10/2010 18:33:21

super tablature pour debutant merci beaucoup! trop bien!


Inconnu...

Inconnu...

le 13/10/2010 13:16:51

niquel jadoree -----------------8----7----------------------
---5----8---5---------------------------------
-------------------------------------------
-------------------------------------------
------------------------------------------- sa serait mieu sa
-------------------------------------------





par raport a sa ..-----------------5-----8-----7---------------------
-----5-----8---------------------------------------------------------
---------------------------------------------------------------------
---------------------------------------------------------------------
---------------------------------------------------------------------
---------------------------------------------------------------------




tomtom1204

tomtom1204

le 17/09/2010 17:29:58

oh mec tu est le best de la compos


Inconnu...

Inconnu...

le 11/09/2010 16:22:28

exxelente tablature
facile a jouer pour les débutants/moyen^^
5/5


Inconnu...

Inconnu...

le 30/08/2010 12:06:43

super tab, super simple, c'est cool


toitoine666

toitoine666

le 08/08/2010 21:48:18

et je préfère cette version là que celle de maxleguitariste


toitoine666

toitoine666

le 08/08/2010 21:43:17

Excellente tablature !!! 5/5 et chapeau l'artiste !


Inconnu...

Inconnu...

le 03/08/2010 16:06:06

Super pr un debutant comme moi


Inconnu...

Inconnu...

le 20/05/2010 20:19:20

genial et nikel pour débuter


gratteuxdu83

gratteuxdu83

le 20/05/2010 19:56:46

Tres bien, continue !


Inconnu...

Inconnu...

le 13/04/2010 11:05:07

Super tab, merci beaucoup


Inconnu...

Inconnu...

le 11/04/2010 10:35:31

oooooooooouuuuuuuuuuuuuuuuuuu génial


Inconnu...

Inconnu...

le 11/04/2010 10:33:41

génial


Inconnu...

Inconnu...

le 11/04/2010 10:32:52

oooooooooouuuuuuuuuuuuuuuuuuu génial


r-h-c-p

r-h-c-p

le 07/04/2010 15:31:31

super!!!!=)))))=)))) 5:5


Inconnu...

Inconnu...

le 07/04/2010 13:46:47

pas mal


lolitta

lolitta

le 06/04/2010 09:37:51

super la tablatur en pluse elle et trop facile


romain66250

romain66250

le 04/03/2010 14:19:27

magnifique tab


raphou75019

raphou75019

le 02/03/2010 15:25:07




trop fastoche je me suis eclate

el est mieu la facon de max le guitariste


marieleat

marieleat

le 28/02/2010 10:59:06

bravo


Inconnu...

Inconnu...

le 27/02/2010 11:07:50

Super la tab mais trop facille


romain66250

romain66250

le 23/02/2010 21:37:08

magnifique tab mais je suis du meme avis que maxleguitariste


paulette92

paulette92

le 03/02/2010 21:52:20

Merci vraiment cool ta tab !


Inconnu...

Inconnu...

le 10/01/2010 01:42:52

c'est la meilleur tab de toute ceux qui as je joke pas


nathan67

nathan67

le 07/01/2010 20:34:02

super tab etant debutantn je trouve que c'est exellent et merci


roadtohell

roadtohell

le 28/12/2009 00:37:01

Pas mal mais elle est vraiment trop facile


baba60

baba60

le 23/12/2009 13:54:33

trop bien


bravo


Inconnu...

Inconnu...

le 18/12/2009 17:07:43

moi qui vien de commlencer la guitare il y a 2 semaines je peu te dire que c'est la meilleur tab que jai vu
Maxleguitariste a raison, c'est quan meme mieu avec son astuce.


maxleguitariste

maxleguitariste

le 16/12/2009 16:37:12

merci pour la tablature mais je pense que comme ça ça irai mieux:

-----------------------8-----7---------------------------------------
-----5-----8-----5---------------------------------------------------
---------------------------------------------------------------------
---------------------------------------------------------------------
---------------------------------------------------------------------
---------------------------------------------------------------------

au lieu de :

-----------------5-----8-----7---------------------------------------
-----5-----8---------------------------------------------------------
---------------------------------------------------------------------
---------------------------------------------------------------------
---------------------------------------------------------------------
---------------------------------------------------------------------


romain66250

romain66250

le 12/12/2009 18:11:27

bravo super tab


mull

mull

le 10/11/2009 19:56:14

super tab merci, étant débutant je ne la trouve pas si compliqué, super


I gotta feeling

Album : The E.N.D.

plus de tablatures de cet albumVoir cet album

tablature I gotta feeling the black eyed peas

Cette Tablature I gotta feeling de the black eyed peas est la création ou l'interprétation personnelle de l'artiste qui l'a déposé.
Conformément aux dispositions du Code de la Propriété Intellectuelle, seule l'utilisation de cette représentation pour un usage privé, réduite au cercle de famille, et la reproduction (impression, téléchargement) pour un usage strictement personnel, sont autorisés.
Rappel : Pour se conformer aux lois sur la propriété intellectuelle, les paroles de chansons ne sont pas autorisées sur Partoch.com. Retour aux Tablatures de the black eyed peas.