TELEPHONE

Tablature je revais d un autre monde

Telephone
Pop/Rock
Ajouter à mes artistes favoris
Format : Grille d'accords Un autre monde, Téléphone
Version #3029049 mise en tablature par katana03
Difficulté : 5/10
Note : 3/5 sur 25 avis

Grille d'accords Un autre monde, Téléphone

Téléphone Je revais d'un autre monde accords:ré/sim/fam#/la/sol intro: -2-2-2-2-2-2-2-2-2-2-2-2-2-2-2-2-2-2-2-2-2- -3-3-3-3-3-3-3-3-3-3-3-3-3-3-2-2-2-2-2-2-2- -2-2-2-2-2-2-2-4-4-4-4-4-4-4-2-2-2-2-2-2-2- -0-0-0-0-0-0-0-4-4-4-4-4-4-4-4-4-4-4-4-4-4- ---------------2-2-2-2-2-2-2-4-4-4-4-4-4-4- ---------------2-2-2-2-2-2-2-2-2-2-2-2-2-2- simplifié: ------------------------------------------------- ------------------------------------------------- ------------------------------------------------- ------------------------------------------------- ------------------------------------------------- -10-10-10-10-10-10-10-7-7-7-7-7-7-7-2-2-2-2-2-2-2 couplet: -2-----2---------------2----2-2-2-------2------------2- -3-----3---------------2----2-2-3-------3------------2- -2-----4---------------2----2-2-2-------4------------2- -0-----4---------------4----4-4-0-------4------------4- -------2---------------4----4-4---------2------------4- -------2---------------2----2-2---------2------------2- -2-----2---------------2----2-2-2-------2-------------0-3- -3-----3---------------2----2-2-3-------3-------------2-0- -2-----4---------------2----2-2-2-------4-------------2-0- -0-----4---------------4----4-4-0-------4-------------2-0- -------2---------------4----4-4---------2-------------0-2- -------2---------------2----2-2---------2---------------3- Pour le refrain c'est la /sol Je n'ai pas trouver l'intro arpège

Note cette tablature :

**


Connecte toi pour déposer un commentaire sur cette tablature !

Vos avis sur la tablature Un Autre Monde de téléphone #3029049


pierrick.langguth

pierrick.langguth

le 15/05/2011 14:53:49

c'est cool


zebest

zebest

le 02/05/2010 17:20:36

c'est pas mal mais il y a mieux


bbrockstar

bbrockstar

le 13/02/2010 15:58:18

les arpege c'est ça :

----------------0------------- -------------0-----------------------
-------------3------3-----3--- ----------0------0-------------0-----
----------2------------2------ -------4-------------------4---------
------0----------------------- ----4-----------------4--------------
------------------------------ -------------------------------------
------------------------------ -------------------------------------



----------------0------------- ----------------0--------------------
-------------0------0-----0--- -------------0------0-----0----------
----------2--------------2---- ----------2-------------2------------
------4---------------4------- ------4---------------4--------------
------------------------------ -------------------------------------
------------------------------ -------------------------------------


madigan

madigan

le 27/12/2009 13:49:57

c'est carément fau


dereoxys

dereoxys

le 13/10/2009 20:33:28

si tu reecriver d'une facon plus comprehensible on pourrais noter


ledragon10

ledragon10

le 06/06/2009 19:47:00

nul tête de noeuds


Un Autre Monde

Album : Un autre monde

plus de tablatures de cet albumVoir cet album

Téléphone : Rappels - Volume 1

Téléphone : RAPPELS - VOLUME 1
Type : Partition
Edition Carish

20,80 €

tablature Un Autre Monde téléphone

Cette Grille d'accords Un Autre Monde de téléphone est la création ou l'interprétation personnelle de l'artiste qui l'a déposé.
Conformément aux dispositions du Code de la Propriété Intellectuelle, seule l'utilisation de cette représentation pour un usage privé, réduite au cercle de famille, et la reproduction (impression, téléchargement) pour un usage strictement personnel, sont autorisés.
Rappel : Pour se conformer aux lois sur la propriété intellectuelle, les paroles de chansons ne sont pas autorisées sur Partoch.com. Retour aux Tablatures de téléphone.