STING

Tablature fragile

Sting
Pop/Rock
Ajouter à mes artistes favoris
Format : Fragile, Sting
Version #2786766 mise en tablature par Inconnu
Difficulté : 5/10
Note : 2/5 sur 6 avis

Fragile, Sting

#----------------------------------PLEASE NOTE---------------------------------# #This file is the author's own work and represents their interpretation of the # #song. You may only use this file for private study, scholarship, or research. # #------------------------------------------------------------------------------## >From sd021@diana.di.fc.ul.pt (SDII-Grupo_sd021) Newsgroups: alt.guitar.tab Subject: TAB: Sting: Fragile Date: 8 Mar 1994 03:59:20 -0600 Fragile - Sting from "Nothing Like The Sun" album Transcription: Luis Ferreira Part I (Intro): e------7p5--5h7--I-----7p5--5h7--7p5--5h7--7p5h7

Note cette tablature :



Connecte toi pour déposer un commentaire sur cette tablature !

Vos avis sur la tablature fragile de sting #2786766


Inconnu...

Inconnu...

le 01/01/2004 00:00:00

nul


Inconnu...

Inconnu...

le 01/01/2004 00:00:00

Just another way of picking the same chords (sounds brighther 'cause longer rope).

Cheers.

|----7---5---3-3--7---3--|----3---2---0-0--3---0--|
|------------------------|------------------------|
|----7---5---4-4--7---4--|----4---2---0-0--4---0--|
|------------------------|------------------------|
|------------------------|-0----------------------|
|-0----------------------|------------------------|


|----3---2--------2------|-2---2-0--3--||
|------------4-4------4--|------------o||
|----4---2--------2------|-2---2-0--4--||
|------------4-4------4--|-------------||
|-2----------------------|------------o||
|------------------------|-0-----------||


fragile

Album : Unplugged (disc 1: The Rehearsal)

plus de tablatures de cet album

Sting For Guitar Tab (partition)

Sting For Guitar Tab (Partition)
Type : Partition
Edition Amscowyse

26,10 €

tablature fragile sting

Cette fragile de sting est la création ou l'interprétation personnelle de l'artiste qui l'a déposé.
Conformément aux dispositions du Code de la Propriété Intellectuelle, seule l'utilisation de cette représentation pour un usage privé, réduite au cercle de famille, et la reproduction (impression, téléchargement) pour un usage strictement personnel, sont autorisés.
Rappel : Pour se conformer aux lois sur la propriété intellectuelle, les paroles de chansons ne sont pas autorisées sur Partoch.com. Retour aux Tablatures de sting.