SAEZ

Tablature on meurt de toi

Saez
Pop/Rock
Ajouter à mes artistes favoris
Format : Tablature On meurt de toi, Saez
Version #3070199 mise en tablature par rockeuz004
Difficulté : 5/10
Note : 2/5 sur 2 avis

Tablature On meurt de toi, Saez

------------------------------------------------------------------------------------------ ---3----3----3----2------------3----3----3----3------0----0---0---0-----2---2---2---2----- ---4----4----4----4---x2-------4----4----4----4------0----0---0---0-----2---2---2---2----- -4----4----4----4------------4----4----4----4--------------------------------------------- ------------------------------------------------------------------------------------------ ----------------------------------------------------0----0---0---0-----4---4---4---4------ ensuite c'est a peu près toujours la même chose voila ^^

Note cette tablature :

L'autre tablature disponible pour ce titre :

  • Pour Guitare :
  • Tablature On Meurt De Toi par thesaez
  • << Retour aux tablatures de saez




    Connecte toi pour déposer un commentaire sur cette tablature !

    Vos avis sur la tablature On meurt de toi de saez #3070199


    pitch38

    pitch38

    le 14/11/2008 21:52:46

    Les lignes des tablatures se sont décalées donc je précise les accords de bases de la chanson:
    couplet : Bm Em F#m Bm
    refrain : G D Bm A


    pitch38

    pitch38

    le 14/11/2008 21:47:01

    si je peux me permettre je donne ce que j'ai trouvé de mon côté:


    intro: Couplet:
    ---------------------------------------------------------------------------------------------------------
    ---3----3----3----2------------3----3----3----3------0----0---0---0-----2---2---2---2-----3---3---2---2--
    ---4----4----4----4---x2-------4----4----4----4------0----0---0---0-----2---2---2---2-----4---4---4---4--
    -4----4----4----4------------4----4----4----4-------------------------------------------4---4---4---4----
    ----------------------------------------------------------------------4---4---4---4----------------------
    ----------------------------------------------------0----0---0---0---------------------------------------

    refrain:
    ------------------------------------------------------------------------------------------
    ---0----0----0----0------------3----3----3----3------3----3---3---3-----2---2---2---0-----
    ---0----0----0----0------------2----2----2----2------4----4---4---4-----2---2---2---2-----
    -----------------------------0----0----0----0------4----4---4---4-------------------------
    ----------------------------------------------------------------------0---0---0---0-------
    -3----3----3----3-------------------------------------------------------------------------


    tablature On meurt de toi saez

    Cette Tablature On meurt de toi de saez est la création ou l'interprétation personnelle de l'artiste qui l'a déposé.
    Conformément aux dispositions du Code de la Propriété Intellectuelle, seule l'utilisation de cette représentation pour un usage privé, réduite au cercle de famille, et la reproduction (impression, téléchargement) pour un usage strictement personnel, sont autorisés.
    Rappel : Pour se conformer aux lois sur la propriété intellectuelle, les paroles de chansons ne sont pas autorisées sur Partoch.com. Retour aux Tablatures de saez.