RIKE

Tablature oublie moi

Rike
Reggae
Ajouter ŕ mes artistes favoris
Format : Tablature Oublie moi, Riké
Version #3057160 mise en tablature par mcfly620
Difficulté : 2/10
Note : 4/5 sur 4 avis

Tablature Oublie moi, Riké

-------------------------- -------------------------- -------------------8------ -8-8-8---6-6-6--8--8--8--- -8-8-8---6-6-6--8--6--8--- -6-6-6---4-4-4--6-----6---

Note cette tablature :

Mastering The Blues

Mastering The Blues
Type : Partition
Edition ALF

24,10 €



Connecte toi pour déposer un commentaire sur cette tablature !

Vos avis sur la tablature oublie moi de riké #3057160


Inconnu...

Inconnu...

le 11/11/2007 21:24:07

Il y a un bug sa a décalé un 6 je sais pas pourquoi

donc l'avant dernier accord c'est bien:

6
6
4


Inconnu...

Inconnu...

le 11/11/2007 21:22:30

Nan moi je dirais plus que c'est:

----------------------------
----------------------------
-------------------6--------
-8-8-8---6-6-6--8--6--8-----
-8-8-8---6-6-6--8--4--8-----
-6-6-6---4-4-4--6-----6-----


Inconnu...

Inconnu...

le 08/07/2007 17:07:36

C'est pas plutot :

---------------------------
---------------------------
---------------------------
-8-8-8---6-6-6--8--11--8---
-8-8-8---6-6-6--8--11--8---
-6-6-6---4-4-4--6--9--6----


Inconnu...

Inconnu...

le 28/06/2007 11:55:52

mc fly le morning du....


tablature oublie moi riké

Cette Tablature oublie moi de riké est la création ou l'interprétation personnelle de l'artiste qui l'a déposé.
Conformément aux dispositions du Code de la Propriété Intellectuelle, seule l'utilisation de cette représentation pour un usage privé, réduite au cercle de famille, et la reproduction (impression, téléchargement) pour un usage strictement personnel, sont autorisés.
Rappel : Pour se conformer aux lois sur la propriété intellectuelle, les paroles de chansons ne sont pas autorisées sur Partoch.com. Retour aux Tablatures de riké.