DESJARDINS RICHARD

Tablature lomer

Richard Desjardins
Variétés
Ajouter à mes artistes favoris
Format : Tablature Lomer, Richard desjardins
Version #3039591 mise en tablature par orca21
Difficulté : 5/10
Note : 2/5 sur 1 avis

Tablature Lomer, Richard desjardins

LOMER G G C C G D G G C C G D G G.........


Aide la communauté à toujours proposer les meilleures tabs en premier : cette tab n'a pas encore reçu assez de votes !
Clique sur les étoiles ci-dessous pour donner ton avis sur sa qualité.
Note cette tablature :



Connecte toi pour déposer un commentaire sur cette tablature !

Vos avis sur la tablature LOMER de richard desjardins #3039591


Inconnu...

Inconnu...

le 21/04/2007 19:55:49

j'avais écrit ça une fois :


Intro et petits ponts

Sol

| | | | | | | |
-------------------3-----------------------------3---------------
---3-----3-------5---3-------------------------------------------
-4-----------------------4-------2-------------------------------
-------------------------------5---5-----------------------------
-----5-------5---------------5---------------5-----5---5-----5---
-3-------3---------------3---------------3---------------3-------




Sol

| | | | | | | |
-------------------3-----------------------------3---------------
---3-----3-------5---3-------------------------------------------
-4-----------------------4-------2-------------------------------
-------------------------------5---5-----------------------------
-----5-------5---------------5-------4-------5-----5---5-----5---
-3-------3---------------3---------------3---------------3-------




puis la suite, quelque chose dans le genre (à beaucoup près °_°)

| | | |
-------------------3-------------
-------3-------3-------3-------3-
-----4-------4-------4-------4--- x 3
---------------------------------
---------5---------------5-------
-3---------------3---------------




| | | | |
----------------------------------
-------3-----3-----3-----3-----3--
-----4-----4-----4-----4-----4---- x 1
---------5-----5-----5-----5------
----------------------------------
-3-------------------------------3


tablature LOMER richard desjardins

Cette Tablature LOMER de richard desjardins est la création ou l'interprétation personnelle de l'artiste qui l'a déposé.
Conformément aux dispositions du Code de la Propriété Intellectuelle, seule l'utilisation de cette représentation pour un usage privé, réduite au cercle de famille, et la reproduction (impression, téléchargement) pour un usage strictement personnel, sont autorisés.
Rappel : Pour se conformer aux lois sur la propriété intellectuelle, les paroles de chansons ne sont pas autorisées sur Partoch.com. Retour aux Tablatures de richard desjardins.