POW WOW

Tablature le lion est mort ce soir

Pow Wow
Variétés
Ajouter à mes artistes favoris
Format : Tablature Le lion est mort ce soir, Pow wow
Version #3030314 mise en tablature par marg277
Difficulté : 1/10
Note : 2/5 sur 470 avis

Tablature Le lion est mort ce soir, Pow wow

e--2-4-2-4-5-4-2-0-2-4-2-4-2-7-4-2-0-4-5-4-2-0-2-4-2-0-4-2---| (sur la plus grosse corde) laissez aller vos fantaisies !!! ;)

Note cette tablature :



Connecte toi pour déposer un commentaire sur cette tablature !

Vos avis sur la tablature le lion est mort ce soir de pow wow #3030314


ccilouguitare

ccilouguitare

le 20/07/2015 19:34:51

on ne me l'a pas apprise comme ça moi.. je suis hyper débutante mais c'est un bon début pour moi
pour commencer sur la plus petite corde. quand le morceau est maitrisé on peut monté dans les graves.
0-2-4-2-5-4-2-0-2-4-2-0-4-2
7-4-2-4-7-5-4-2-0-2-4-2-0-4-2


curly8

curly8

le 10/01/2014 11:14:47

Décalé la 5eme ligne pour le bon résultat. Sa a bouger quand j'ai copié la tab. Merci


curly8

curly8

le 10/01/2014 11:11:22

J'ai complété la chanson a partir de celle de xmia (merci encore). Voila le résultat.
------------------------------------------------------------------------------------------
------------------------------------------------------------------------------------------
------------------------------------------------------------------------------------------
-----0--2--0--2--3--2--0-----0--2--0-----2--0--5--2--0--2--5--3--2--0-----0--2--0-----2--0
--3-----------------------3-----------3--------------------------------3-----------3------
------------------------------------------------------------------------------------------


harold1977

harold1977

le 07/01/2014 19:40:43

merci mes prefere la tab a xmia plus simple pour moi


hoggex

hoggex

le 20/12/2013 16:45:15

Désolé mais bof !


papertoys

papertoys

le 16/11/2013 10:46:44

bof pas geniale


xmia

xmia

le 22/08/2013 12:37:15

Tablature nul !

Voici comment la faire !


--------------------------------------------------
--------------------------------------------------
--------------------------------------------------
-----0--2--0--2--3--2--0-----0--2--0-----2--0-----
--3-----------------------3-----------3-----------
--------------------------------------------------


mattlili

mattlili

le 28/07/2013 12:34:49

Pour ceux que ça intéresse : les accords : C, F, G. Facile hein.


mattlili

mattlili

le 28/07/2013 12:22:40

Merci pour cette tab mais vous ne l'auriez pas en accords à tout hasard ? Parce que le solo autour d'un feu de camp... bof. wink


nosville123

nosville123

le 30/03/2013 12:05:26

Je ne reconnais rien. 0/5..
Par contre la version de floriandent est super !


floriandent

floriandent

le 05/01/2012 21:12:59

Assez bien, cependant, moi je le fais comme ça :


--------------------------------------------------
--------------------------------------------------
--------------------------------------------------
-----0--2--0--2--3--2--0-----0--2--0-----2--0-----
--3-----------------------3-----------3-----------
--------------------------------------------------


taraking

taraking

le 03/11/2011 20:03:49

LA SUITTTTTTTTTE :'(


éléonore13

éléonore13

le 02/11/2011 23:32:31

Super ! dommage qu'il n'y est pas la suite


Inconnu...

Inconnu...

le 16/10/2011 20:20:53

je comprnd pas bien vers avant la fin sinon c'est bien


djo7659

djo7659

le 07/08/2011 02:47:59

sur la 3eme ou la 6eme corde de votre guitare : case numéro: 0,2,4,2,4,5,4,2,0,2,4,2,0,4,2. Voila :)


cocoba

cocoba

le 04/08/2011 08:41:46

J'ai pas tout compris mais c'est très bien!


arceur

arceur

le 05/07/2011 18:39:49

Le début commence bien mais je ne m'y retrouve plus ensuite par rapport à la chanson ...


le lion est mort ce soir

Album : Regagner les plaines

plus de tablatures de cet albumVoir cet album

tablature le lion est mort ce soir pow wow

Cette Tablature le lion est mort ce soir de pow wow est la création ou l'interprétation personnelle de l'artiste qui l'a déposé.
Conformément aux dispositions du Code de la Propriété Intellectuelle, seule l'utilisation de cette représentation pour un usage privé, réduite au cercle de famille, et la reproduction (impression, téléchargement) pour un usage strictement personnel, sont autorisés.
Rappel : Pour se conformer aux lois sur la propriété intellectuelle, les paroles de chansons ne sont pas autorisées sur Partoch.com. Retour aux Tablatures de pow wow.